Guitaretab - guitar tabs
Song name
# A B C D E F G H I J K L M N O P Q R S T U V W X Y Z

Goddo - So Walk On tab

t. See http://www.olga.net/faq/ for more information.                     #
#-----------------------------------------------------------------------------#

From: Anthony Filoso 
Subject: g/goddo/so_walk_on.tab
Date: Wed, 20 Oct 1999 13:30:09 -0700

Goddo- So Walk On
	 From the CD 12 Gauge Goddo
	 Written by Greg Godovitz


		

Anthony Filoso - afiloso@microsoft.com





Intro, 

e:----2-------------------------------------------------------------|
B:----2-------------------------------------------------------------|
G:------0---2-2-0---------------------------------------------------|
D:------0---2-2-0-------2------2------------------------------------|
A:--2---------------------------------------------------------------|
E:--0---------------2s3----2s3--------------------------------------|


the intro repeats iteself and is basically the whole song with the
exception of the Chorus 



Chourus


   Hey you   

       E      G    A    G

e:-----0------3---------3-----------------------------------------|
B:-----0------0----2----0-----------------------------------------|
G:-----1------0----2----0-----------------------------------------|
D:------------0----2----0----------0--2p0-------------------------|
A:--2---------2----0----2------------------2p0--------------------|
E:--0---------3---------3--------3--------------------------------|



e:-----0------3---------3-----------------------------------------|
B:-----0------0----2----0-----------------------------------------|
G:-----1------0----2----0-----------------------------------------|
D:------------0----2----0-----------------------------------------|
A:--2---------2----0----2-----------------------------------------|
E:--0---------3---------3--------3-2-1-0--------------------------|



e:----2-----------------------------------------------------------|
B:----2-----------------------------------------------------------|
G:------0---2-2-0-------------------------------------------------|
D:------0---2-2-0-------2------2----------------------------------|
A:--2------------------------------2------------------------------|
E:--0---------------2s3----2s3-----0------------------------------|
[ Tab from: http://www.guitaretab.com/g/goddo/7020.html ]
Related for So Walk On tab
Advertisement will be closed in 10 seconds