Song name
# A B C D E F G H I J K L M N O P Q R S T U V W X Y Z

Godsmack - Enemy tab

Intro:
Guitar 1
E|------------------------------------------------------------|
B|------------------------------------------------------------|
G|------------------------------------------------------------|
D|------------------------------------------------------------|
A|-0-0-0--0-0-0-0--0-0--0-0-0-0--0-0-0--0-0-0-0--0-0--0-0-0-0-|
D|-0-0-0--0-0-0-0--0-0--0-0-0-0--0-0-0--0-0-0-0--0-0--0-0-0-0-|
                                   

E|-----------------------------------------------------|
B|-----------------------------------------------------|
G|-----------------------------------------------------|
D|-----------------------------------------------------|
A|-0-0-0-0-0-0-0-0-0-0-0-0-0-0-0-0-0-0-0-0-0-0-0-0-0-0-|
D|-0-0-0-0-0-0-0-0-0-0-0-0-0-0-0-0-0-0-0-0-0-0-0-0-0-0-|
                            

Guitar 2
E|--------------------------------------------------------------------|
B|--------------------------------------------------------------------|
G|-8\77--8\77--8\7--8\77--8\77--8\7--8\77--8\77--8\7--8\77--8\77--8\7-|
D|--------------------------------------------------------------------|
A|-6\55--6\55--6\5--6\55--6\55--6\5--6\55--6\55--6\5--6\55--6\55--6\5-|
D|--------------------------------------------------------------------|

Verse:
Guitar 1 & Guitar 2
E|--------------------------------------------------------------|
B|--------------------------------------------------------------|
G|--------------------------------------------------------------|
D|-0-0-0--0-0-0-0--0--0--0-0-0-0--0-0-0--0-0-0-0--0--0--0-6-6-6-|
A|-0-0-0--0-0-0-0--0--0--0-0-0-0--0-0-0--0-0-0-0--0--0--0-6-6-6-|
D|-0-0-0--0-0-0-0--0--0--0-0-0-0--0-0-0--0-0-0-0--0--0--0-6-6-6-|

E|----------------------------------------------------------------------|
B|----------------------------------------------------------------------|
G|----------------------------------------------------------------------|
D|-0-0-0--0-0-0-0--0--0--0-0-0-0--0-0-0--0-0-0-0--0--0--3-3-3-3-3-3-3-3-|
A|-0-0-0--0-0-0-0--0--0--0-0-0-0--0-0-0--0-0-0-0--0--0--3-3-3-3-3-3-3-3-|
D|-0-0-0--0-0-0-0--0--0--0-0-0-0--0-0-0--0-0-0-0--0--0--3-3-3-3-3-3-3-3-|

E|--------------------------------------------------------------|
B|--------------------------------------------------------------|
G|--------------------------------------------------------------|
D|-0-0-0--0-0-0-0--0--0--0-0-0-0--0-0-0--0-0-0-0--0--0--0-6-6-6-|
A|-0-0-0--0-0-0-0--0--0--0-0-0-0--0-0-0--0-0-0-0--0--0--0-6-6-6-|
D|-0-0-0--0-0-0-0--0--0--0-0-0-0--0-0-0--0-0-0-0--0--0--0-6-6-6-|

E|----------------------------------------------------------------------|
B|----------------------------------------------------------------------|
G|----------------------------------------------------------------------|
D|-0-0-0--0-0-0-0--0--0--0-0-0-0--0-0-0--0-0-0-0--0--0--3-3-3-3-3-3-3-3-|
A|-0-0-0--0-0-0-0--0--0--0-0-0-0--0-0-0--0-0-0-0--0--0--3-3-3-3-3-3-3-3-|
D|-0-0-0--0-0-0-0--0--0--0-0-0-0--0-0-0--0-0-0-0--0--0--3-3-3-3-3-3-3-3-|

Chorus:
Guitar 1 & Guitar 2
E|----------------------------------------------|
B|---3--3-3-3-3-3-3-3-3-------------------------|
G|---2--2-2-2-2-2-2-2-2-------------------------|
D|-0-0--0-0-0-0-0-0-0-0-5-5-5-5-5-8-8-8-8-8-8-8-|
A|-0-0--0-0-0-0-0-0-0-0-3-3-3-3-3-6-6-6-6-6-6-6-|
D|-0-0--0-0-0-0-0-0-0-0-------------------------|

E|----------------------------------------------|
B|---3--3-3-3-3-3-3-3-3-------------------------|
G|---2--2-2-2-2-2-2-2-2-------------------------|
D|-0-0--0-0-0-0-0-0-0-0-5-5-5-5-5-3-3-3-3-3-2-0-|
A|-0-0--0-0-0-0-0-0-0-0-3-3-3-3-3-1-1-1-1-1-0-0-|
D|-0-0--0-0-0-0-0-0-0-0-----------------------0-|

E|----------------------------------------------|
B|---3--3-3-3-3-3-3-3-3-------------------------|
G|---2--2-2-2-2-2-2-2-2-------------------------|
D|-0-0--0-0-0-0-0-0-0-0-5-5-5-5-5-8-8-8-8-8-8-8-|
A|-0-0--0-0-0-0-0-0-0-0-3-3-3-3-3-6-6-6-6-6-6-6-|
D|-0-0--0-0-0-0-0-0-0-0-------------------------|

E|---------------------------------------------------|
B|---3--3-3-3-3-3-3-3-3------------------------------|
G|---2--2-2-2-2-2-2-2-2------------------------------|
D|-0-0--0-0-0-0-0-0-0-0---5---5---3--3-3-3-3-3-3-2-0-|
A|-0-0--0-0-0-0-0-0-0-0---3---3---1--1-1-1-1-1-1-0-0-|
D|-0-0--0-0-0-0-0-0-0-0-0---0---0------------------0-|
                              

Break:
Guitar 1 & Guitar 2
E|--------------------------------------------------------------|
B|--------------------------------------------------------------|
G|--------------------------------------------------------------|
D|-0-0-0--0-0-0-0--0--0--0-0-0-0--0-0-0--0-0-0-0--0--0--0-6-6-6-|
A|-0-0-0--0-0-0-0--0--0--0-0-0-0--0-0-0--0-0-0-0--0--0--0-6-6-6-|
D|-0-0-0--0-0-0-0--0--0--0-0-0-0--0-0-0--0-0-0-0--0--0--0-6-6-6-|

E|--------------------------------------------------------------------------------|
B|--------------------------------------------------------------------------------|
G|--------------------------------------------------------------------------------|
D|-0-0-0--0-0-0-0--0--0--0-0-0-0--0-0-0--0-0-0-0--0--0--------------------------1-|
A|-0-0-0--0-0-0-0--0--0--0-0-0-0--0-0-0--0-0-0-0--0--0--------------------------1-|
D|-0-0-0--0-0-0-0--0--0--0-0-0-0--0-0-0--0-0-0-0--0--0--0-7h8-0-5h7-0-3h5-0-2h3-1-|

Repeat Verse
Repeat Chorus

Bridge:
Pt. 1
Guitar 1
E|------------------------------------------------------------|
B|------------------------------------------------------------|
G|------------------------------------------------------------|
D|------------------------------------------------------------|
A|-0-0-0--0-0-0-0--0-0--0-0-0-0--0-0-0--0-0-0-0--0-0--0-0-0-0-|
D|-0-0-0--0-0-0-0--0-0--0-0-0-0--0-0-0--0-0-0-0--0-0--0-0-0-0-|
                                   

E|-----------------------------------------------------|
B|-----------------------------------------------------|
G|-----------------------------------------------------|
D|-----------------------------------------------------|
A|-0-0-0-0-0-0-0-0-0-0-0-0-0-0-0-0-0-0-0-0-0-0-0-0-0-0-|
D|-0-0-0-0-0-0-0-0-0-0-0-0-0-0-0-0-0-0-0-0-0-0-0-0-0-0-|
                            

Guitar 2
E|--------------------------------------------------------------------|
B|--------------------------------------------------------------------|
G|-8\77--8\77--8\7--8\77--8\77--8\7--8\77--8\77--8\7--8\77--8\77--8\7-|
D|--------------------------------------------------------------------|
A|-6\55--6\55--6\5--6\55--6\55--6\5--6\55--6\55--6\5--6\55--6\55--6\5-|
D|--------------------------------------------------------------------|

Pt. 2
Guitar 1 & Guitar 2(2x)
E|------------------------------------------------------|
B|------------------------------------------------------|
G|-8\7-----8\7-----13\12-12-12--8\7-----8\7-----5-5-5-5-|
D|------------------------------------------------------|
A|-6\5-----6\5-----11\10-10-10--6\5-----6\5-----3-3-3-3-|
D|-----0-0-----0-0------------------0-0-----0-0---------|

Pt. 3
Guitar 2
E|----------------------------------------|
B|----------------------------------------|
G|-7-----8-----10-----8-----7-----2-----5-|
D|-0-----0-----0------0-----0-----0-----0-|
A|----------------------------------------|
D|----------------------------------------|

Guitar 1(2x)
E|------------------------------------------------------|
B|------------------------------------------------------|
G|-8\7-----8\7-----13\12-12-12--8\7-----8\7-----5-5-5-5-|
D|------------------------------------------------------|
A|-6\5-----6\5-----11\10-10-10--6\5-----6\5-----3-3-3-3-|
D|-----0-0-----0-0------------------0-0-----0-0---------|

Pt. 4
Guitar 1 & Guitar 2(4x)
E|------------------------------------------------------------|
B|------------------------------------------------------------|
G|------------------------------------------------------------|
D|---------1p0-------1p0---1p0----------1p0-------1p0---1p0-3-|
A|-----0-0-1p0-0-0-0-1p0---1p0------0-0-1p0-0-0-0-1p0---1p0-3-|
D|-000-0-0-1p0-0-0-0-1p0-0-1p0--000-0-0-1p0-0-0-0-1p0-0-1p0-3-|
                                     

Pt. 5
Guitar 1 & Guitar 2(2x)
E|------------------------------------------------------|
B|------------------------------------------------------|
G|-8\7-----8\7-----13\12-12-12--8\7-----8\7-----5-5-5-5-|
D|------------------------------------------------------|
A|-6\5-----6\5-----11\10-10-10--6\5-----6\5-----3-3-3-3-|
D|-----0-0-----0-0------------------0-0-----0-0---------|


Pt. 6
Guitar 2
E|-----------------------|
B|-----------------------|
G|-7-----8-----10-----11-|
D|-0-----0-----0------0--|
A|-----------------------|
D|-----------------------|

Guitar 1(2x)
E|------------------------------------------------------|
B|------------------------------------------------------|
G|-8\7-----8\7-----13\12-12-12--8\7-----8\7-----5-5-5-5-|
D|------------------------------------------------------|
A|-6\5-----6\5-----11\10-10-10--6\5-----6\5-----3-3-3-3-|
D|-----0-0-----0-0------------------0-0-----0-0---------|

Pt. 7
Guitar 1 & Guitar 2(Start off palm muting and gradually pull off)
E|-----------------------------------------------------|
B|-----------------------------------------------------|
G|-----------------------------------------------------|
D|-----------------------------------------------------|
A|-6-6-6-6-6-6-6-6-6-6-6-6-6-6-6-6-6-6-6-6-6-6-6-6-6-6-|
D|-6-6-6-6-6-6-6-6-6-6-6-6-6-6-6-6-6-6-6-6-6-6-6-6-6-6-|

Repeat Chorus

Outro:
Guitar 1 & Guitar 2
E|--------------------------------------------------------------|
B|--------------------------------------------------------------|
G|--------------------------------------------------------------|
D|--------------------------------------------------------------|
A|-0-0-0--0-0-0-0--0--0--0-0-0-0--0-0-0--0-0-0-0--0--0--0-0-0-0-|
D|-0-0-0--0-0-0-0--0--0--0-0-0-0--0-0-0--0-0-0-0--0--0--0-0-0-0-|

E|-----------------------------------------------|
B|-----------------------------------------------|
G|-----------------------------------------------|
D|-----------------------------------------------|
A|-0-0-0--0-0-0-0--0--0--0-0-0-0--0-0-0--0-0-0-0-|
D|-0-0-0--0-0-0-0--0--0--0-0-0-0--0-0-0--0-0-0-0-|
Tap to rate this tab
# A B C D E F G H I J K L M N O P Q R S T U V W X Y Z