Song name
# A B C D E F G H I J K L M N O P Q R S T U V W X Y Z

Godspeed You Black Emperor - Moya tab

Help us improve GuitareTab! Take a short survey!
Song:	Moya
Artist:	Godspeed You Black Emperor!
Album:	Slow Riot For New Zero Kanada

Tab by Johan Soräng (johan.sorang@gmail.com)
Thanks goes out to Ben Wilkinson (benwilko_faster@yahoo.com) for figuring out the
tuning. They seem to use it alot, if not exclusively.

I've tabbed out the chords played between 3:40-4:58, after the violin/cello intro.

They might use the F string more than ive tabbed, but you get the picture.

[3:40]
Db ------------------------------------------------|
Bb --0--------2--------12-------8--------10--------|
F  --0--------X--------X--------X--------X---------|
Db --0--------2--------12-------9--------11--------|
Bb --------0--------0--------0--------0--------0---|
Eb ------------------------------------------------|
     1  2  3  1  2  3  1  2  3  1  2  3  1  2  3  -|


Db ------------------------------------------------|
Bb --7--------8--------5--------3--------2---------|
F  --X--------X--------X--------X--------X---------|
Db --7--------9--------5--------4--------2---------|
Bb --------0--------0--------0--------0--------0---|
Eb ------------------------------------------------|
     1  2  3  1  2  3  1  2  3  1  2  3  1  2  3  -|


Db ------------------------------------------------|
Bb --0--------2------------------------------------|
F  --0--------X------------------------------------|
Db --0--------2------------------------------------|
Bb --------0--------0------------------------------|
Eb ------------------------------------------------|
     1  2  3  1  2  3  1  2  3  1  2  3  1  2  3  -|

Repeat x3
Related for Moya tab