Song name
# A B C D E F G H I J K L M N O P Q R S T U V W X Y Z

Golden Dawn - My Time tab

Help us improve GuitareTab! Take a short survey!
My Time-The Golden Dawn 
from the album Power Plant (1968)
Official Site: http://www.georgekinney.com/
Reference:
      EADGBE
E:    022100
D:    000232
Dsus4:000233
A:    002220
h=hammer on
p=pull off
b=bend
r=release
Riff 1: 

D----2----2-----2-
A-0h2--0h2--0h2---
E-----------------



Intro:
                  E      D Dsus4 D         
-----------------||-----------------||
-----------------||-----------------||
-----------------||.---------------.||
----2-0-------0--||-----2-0-------0-||
-0h2-----2-0h2---||.--0h2-----2-0h2.||
0----0-0--0------||-0----0-0--0-----||x3


Verse:
E             D      Dsus4   D
It has been  Running through my mind
             That you're not my kind
             but I don't mind
             It's just that time
             I'm feeling fine
             Inside my mind
             It's my time

E (hold, then crescendo)
Chorus:
D     A      E
My          Time  (Riff 1)
My          Time  (Riff 1)   
My          Time  (Riff 1)


I have known you for quite some time
I've never seen a sign
You even know the place I live
You can receive the love I give
But it doesn't matter anyway,
Anyhow, any day now
Won't be leaving, here to stay,
It's my time

Chorus
My time
My time
My time

Solo:
e-------------------------------------------------------------------------
b-------------------------------------------------------------------------
g-------------------------------------------------------------------------
d--7--5h7--3h5--2h3-------------------------------------------------------
a-------------------3s5-5b6-6-6-6-6-6r5-5-5-3-3-3-1-1-1p0-----------------
e---------------------------------------------------------3s5-5-5-0-------


e-------------------------------------------------------------------------
b-------------------------------------------------------------------------
g-------------------------------------------------------------------------
d-9-9-10-12-13-12-10-9-9-7-7-7h9-9b10-10-10-10r9-9-9-10-12-13-12-10-9-9-9-
a-------------------------------------------------------------------------
e-------------------------------------------------------------------------

e-------------------------------------------------------------------------
b-------------------------------------------------------------------------
g-------------------------------------------------------------------------
d-7h9-5h7-4h5-2h4-0h2--0h2-0h2-0h2-0h2------------------------------------
a-------------------------------------------------------------------------
e-------------------------------------------------------------------------
Chorus
My time
My time
My time


I haven't seen the light 
shining from your eyes
that signifies
that your disguise
has not been lifted
from your face
you're just the past
to me my place
is marked around you
and your lace
is only taking up my space
its my time

Chorus
My time
My time
My time

Outro:
e-2------------------------------------------------------
b-3--2---------------------------------------------------
g-2--2---1-----------------------------------------------
d----2---2------7h9-9-9-7-7-7h9-9b10-10-10r9-7-7r5-3-2---(Fade Out)
a--------2-----------------------------------------------
e--------------------------------------------------------






Related for My Time tab