Guitaretab - guitar tabs
Song name
# A B C D E F G H I J K L M N O P Q R S T U V W X Y Z

Golden Earring - Another 45 Miles tab

G      320003
G/F#   2x0003
D      xx0232
D7     xx0212
Em     022000
Dsus4  xx0233
Am     x02210
A      x02220
G7     x-x-9-10-8-7   (of 320001) 
C      8-10-10-9-8-8  (of x32010) 


Guitar 1 just plays the chords G G/F# Em  that two times

e||--------------|----------------------|----------------------||
B||--------------|-12-12-10-8-10-12-8-5-|-12-12-10-8-10-12-8-5-||
G||--------------|----------------------|----------------------|| Guitar 2
D||--------------|----------------------|----------------------||
A||--------------|----------------------|----------------------||
E||--------------|----------------------|----------------------||


Verse:

G    G/F#      Em       G    G/F#     Em
Here comes the night, a veil over the light
       Am            G              D                Dsus4 D                  
In the distance some shadows of the clouds in the sky
     Am         G          D             Dsus4 D             
I've got to get home to my child, my wife



G    G/F#      Em                   A                       D      
Here comes the night, Iím scared to death, got to get me a ride
   D7                     G                  G7           C
It looks like the road is swallowing me up,  got to hurry home
      G            D         Em                C ---  C      
Don't dare to look back, Blueville is straight ahead

Chorus: 

G          G/F#     Em      G          G/F#             Em 
Another 45 miles to go,     another 45 miles before I'm home
  Am       G            D                 Dsus4 D                   
I wish the sunlight was burning in my eyes
  Am       G            D                  
Instead of shades black faces of the sky
G          G/F#     Em      G          G/F#             Em
Another 45 miles to go,     another 45 miles before I'm home
  Am           G       D      
I wish I could pay the sun to run
       Am            G            D           
Then I had some more time with my wife and my son


play intro again
                                                   ]
e||-----------------------|----------------------||
B||-12-10-8-10-12-8-5-3-5-|-12-10-8-10-12-10-5-8-||
G||-----------------------|----------------------|| guitar 2
D||-----------------------|----------------------||
A||-----------------------|----------------------||
E||-----------------------|----------------------||


Verse:

G      G/F#   Em   G         G/F#  Em
Clouds in the sky, gathering for a fight
Am            G              D         Dsus4 D            
Chasing their prey, 'till it can't go on
  Am      G              D                      
I mend my pace 'cause my bride is waiting home



G    G/F#      Em                   A                       D Dsus4 D      
Here comes the night, Iím scared to death, got to get me a ride
   D7                     G                  G7           C
It looks like the road is swallowing me up,  got to hurry home
      G            D         Em                C --- C      
Don't dare to look back, Blueville is straight ahead


Chorus: 
[ Tab from: http://www.guitaretab.com/g/golden-earring/26011.html ]
G          G/F#     Em      G          G/F#             Em
Another 45 miles to go,     another 45 miles before I'm home
  Am       G            D                  
I wish the sunlight was burning in my eyes
  Am       G            D                  
Instead of shades black faces of the sky
G          G/F#     Em      G          G/F#             Em
Another 45 miles to go,     another 45 miles before I'm home
  Am           G       D      
I wish I could pay the sun to run
       Am            G            D           
Then I had some more time with my wife and my son


Solo:
    
 G     G/F#  Em              G    G/F#   Em 
e||-3-------3----0---------|-3------3-----0--------|
B||-0-------0----0---------|-0------0-----0--------|
G||-0-------0----0---------|-0------0-----0--------| 
D||-0-------0----2---------|-0------0-----2--------|
A||-2-------x----2---------|-2------x-----2--------|
E||-3-------2----0---------|-3------2-----0--------|
                                                    ]
e||-----------------------|-------------------13~--|
B||-12-10-8-10-12-8-5-3-5-|-12-10-8-10-12-8-5------|
G||-----------------------|------------------------| 
D||-----------------------|------------------------|
A||-----------------------|------------------------|
E||-----------------------|------------------------|
          Am      G           D
e||-------0-0-0-0-3-3-3-3-3-3-2-2-2-2-2------------|
B||-------1-1-1-1-0-0-0-0-0-0-3-3-3-3-3------------|
G||-------2-2-2-2-0-0-0-0-0-0-2-2-2-2-2------------| 
D||-------2-2-2-2-0-0-0-0-0-0-0-0-0-0-0------------|
A||-------0-0-0-0-2-2-2-2-2-2----------------------|
E||---------------3-3-3-3-3-3----------------------|
                                                    ]
e||-10/12/13~- 13-12-12-12-12-10-10-12-10----------|
B||------------------------------------------------|
G||------------------------------------------------| 
D||------------------------------------------------|
A||------------------------------------------------|
E||------------------------------------------------|

          Am       G          D
e||-------0-0-0-0-3-3-3-3-3-3-2-2-2-2-2------------|
B||-------1-1-1-1-0-0-0-0-0-0-3-3-3-3-3------------|
G||-------2-2-2-2-0-0-0-0-0-0-2-2-2-2-2------------| 
D||-------2-2-2-2-0-0-0-0-0-0-0-0-0-0-0------------|
A||-------0-0-0-0-2-2-2-2-2-2----------------------|
E||---------------3-3-3-3-3-3----------------------|
                                                    ]
e||-10/12/13-13-15-12-12-10-10-12-10---------------|
B||------------------------------------------------|
G||------------------------------------------------| 
D||------------------------------------------------|
A||------------------------------------------------|
E||------------------------------------------------|


Refrein:


G          G/F#     Em      G          G/F#             Em
Another 45 miles to go,     another 45 miles before I'm home
  Am       G            D                  
I wish the sunlight was burning in my eyes
  Am       G            D                  
Instead of shades black faces of the sky
G          G/F#     Em      G          G/F#             Em
Another 45 miles to go,     another 45 miles before I'm home
  Am           G       D      
I wish I could pay the sun to run
       Am            G            D                      
Then I had some more time with my wife and my son


| G | G/F# | Em | --- 
Related for Another 45 Miles tab