Goldspot - Rewind tab

Capo on 4th fret

Intro
e-------------------------------------------|
B-------------------------------------------|
G-------------------------------------------|
D-------------------------------------------|
A---5-5-5-5---5-5--3-3-3-3-3-3-3-3----------|
E---3-3-3-3---7-7--5-5-5-5-5-5-5-5----------|

e-------------------------------------------|
B-------------------------------------------|
G-------------------------------------------|
D-------------------------------------------|
A---5-5-5-5---5-5--3-3-3-3-3-3-3-3----------|
E---3-3-3-3---7-7--5-5-5-5-5-5-5-5----------|

Lyrics:
I'm asking you to stay
The words are finally here
Let's rewind, and rewind

e-------------------------------------------|
B-------------------------------------------|
G-------------------------------------------|
D-------------------------------------------|
A---5-5-5-5---5-5--3-3-3-3-3-3-3-3----------|
E---3-3-3-3---7-7--5-5-5-5-5-5-5-5----------|

e-------------------------------------------|
B-------------------------------------------|
G-------------------------------------------|
D-------------------------------------------|
A---5-5-5-5---5-5---3-3-3-3---5-5-----------|
E---3-3-3-3---7-7---5-5-5-5---7-7-----------|

e--3------0---------------------------------|
B--0------1---------------------------------|
G--0------2---------------------------------|
D--2-x16--2-x16-----------------------------|
A--3------0---------------------------------|
E--x------0---------------------------------|
Tap to rate this tab
 
# A B C D E F G H I J K L M N O P Q R S T U V W X Y Z