Song name
# A B C D E F G H I J K L M N O P Q R S T U V W X Y Z

Golduck Productions - Toxic tab

This is guitar Only but if you have a drummer, make him play franticly. This is a song 
beginners who need somewhere to start, or muscians who need a warm up.
Intro
E)-1---------------1----1----5-----2--------|
B)---2-----------3---4----4---4-4-----------|
G)-----3-------2----------------------------|
D)--------4---1-----------------------------|
A)-----------5------------------------------|
E)------------------------------------------|

Costy Chords
E)-1--1--2--2--1---1-2-3------------------------|
B)--------2--2----------------------------------|
G)-2--2-3--3--2---------------------------------|
D)-3--2---------2-------------------------------|
A)----------------------------------------------|
E)----------------------------------------------|

MOP Chords
E)-------------------------------------9-------|
B)-------------------------------------9-------|
G)-4-4---9----4--4---1------------9------------|
D)-2-2---9----4--4---3------------9------------|
A)-2-2---7----2--2---2------------9------------|
E)--------0---------------------------9--------|

Verse1
E)--8d-8d-8d----------------------------------------------|
B)---------------9u-9d-9u-9d----8-------------------------|
G)--------------------------------------10----------------|
D)-------------------------------------------9--12-12-----|
A)--------------------------------------------------------|
E)--------------------------------------------------------|
Verse2
E)------------------------------------------|
B)------------------------------------------|
G)------------------------------------------|
D)--1--3--6---1----6---6--------------------|
A)------------------------------------------|
E)------------------------------------------|

Riff
E)-3----1----------1--------3-1S-1--2-----------|
D)-3------------------2---2---------------3-----|
G)-----------------------3----------------------|
B)-2---------2----------------------------------|
A)-2-----------3--------------------------------|
E)----------------4-----------------------------|
Repeat Intro
Repeat Riff

Outro
E)-1-----------------1-1--------1-1--4------|
B)---2------------2-------4---4---2---------|
G)----3--------3------------5-----3---------|
D)------4-----------------------------------|
A)-------5----------------------------------|
E)----------------------------------------4-|

S= Slide
u= up
D = down
h = hammer on
p = pull off

Band is new
Tap to rate this tab
 
# A B C D E F G H I J K L M N O P Q R S T U V W X Y Z