Guitaretab - guitar tabs
Song name
# A B C D E F G H I J K L M N O P Q R S T U V W X Y Z

Goo Goo Dolls - Without You Here tab

Goo Goo Dolls  Without You Here
Tabbed by: Alejandro Manzano (of Boyce Avenue)

www.myspace.com/boyceavenue

video of me playing/singing it:
http://www.youtube.com/watch?v=Uj62Fm2CZyQ

Key of C

Tuning: C  G  C  G  C  E

Chords:
Am    C or C    G    F
-0----0----0----0----0--|
-0----0----0----0----0--|
-0----0----0----0----0--|
-4----7----0----0----0--|
-2----5----0----7----5--|
------0----0----7----5--|
[ Tab from: http://www.guitaretab.com/g/goo-goo-dolls/143518.html ]
Intro:
Am    C
-0----0--|
-0----0--|
-0----0--|
-4----7--|
-2----5--|
------0--|

Verse:
Am    C    Am   C   Am    G    F
-0----0----0----0----0----0----0--|
-0----0----0----0----0----0----0--|
-0----0----0----0----0----0----0--|
-4----7----4----7----4----0----0--|
-2----5----2----5----2----7----5--|
------0---------0---------7----5--|

Chorus:
 C    Am   F    C
-0----0----0----0--|
-0----0----0----0--|
-0----0----0----0--|
-0----4----0----0--|
-0----2----5----0--|
-0---------5----0--|

Bridge (same as chorus)
Related for Without You Here tab