Guitaretab - guitar tabs
Song name
# A B C D E F G H I J K L M N O P Q R S T U V W X Y Z

Goo Goo Dolls - Sympathy tab

  I AM VERY CONFUSED! It seems to ME as though the people who write tabs for these sites donít actually play them to make sure theyíre rightÖ.cuz EVERY sympathy tab Iíve seen is wayyy WRONG.  So I took it upon myself to write a very correct one.

Hereís the scoop Ė In performance, Johnny plays some funky tuning with a 2nd fret capo, but that only sounds right with the other guitars behind him, not on his own. 
THIS tab will be perfect for solo play, and sounds awesome. 
Correct lyrics, too. Sheesh.

Goo Goo Dolls Ė Sympathy Ė Album GutterFlower     Tabbed by Marty Sedek 2002
^ = slide
h = hammer
Tuning:  Eb/ Ab/ Eb/ Ab/ Ab/ Eb 

Intro and Verses:

Eb / ---------0-0-0--- -0-0-0------0-0-0----0---0-0
Ab/  ---------0-0-0---- 0-0-0------0-0-0----0---0-0
Ab/ ----------0-0-0---- 0-0-0------0-0-0----0---0-0
Eb/  ---------5-5-5-----0-0-0------2-2-2--- 0---0-0
Ab/----- 2^-- 5-5-5-----4-4-4------2-2-2----0---0-0
Eb/     --------xxxxx-----xxxxx-xxxxxx----xxxxxx

Stranger than you sympathy
And this is my apology
Iím killing myself from the inside out
And now my fears have pushed you out


Eb / - 0-0-0-0-0----0-0-0-0-0-----0-0-0-0-0----0-0-0-0-0
Ab/  11^12-12-12----0-0-0-0-0-----0-0-0-0-0----0-0-0-0-0
Ab/ -- 0-0-0-0-0----0-0-0-0-0-----0-0-0-0-0----0-0-0-0-0
Eb/  - 0-0-0-0-0----7-7-7-7-7-----4-h5-5-5-5---4-4h-5-5-5
Ab/--- 0-0-0-0-0----7-7-7-7-7-----5-5 -5-5-5---5-5- 5-5-5
Eb/     -----xxxxxxxxx xxxxxxx xx  xxxxxx         xxxxxx

And I wished for things that I donít need
All I wanted
And what I chased wonít set me free
Itís all I wanted
And I get scared but Iím not crawliní on my knees
Oh Ė


Eb / ------0-0-0-0-0----0-0-0------0-0-0-0
Ab/  ----- 0-0-0-0-0----0-0-0------0-0-0-0
Ab/ -------0-0-0-0-0----0-0-0------0-0-0-0
Eb/  ----- 0-0-0-0-0----7-7-7------5-5-5-5
Eb/ -------2-2-2-2-2     xxxxxx       xxxxxx

Yeah Ė Everything allís wrong yeah
Everythingís all wrong Ė

Chorus lead-out

Eb / ------0-0-0-0-0----0-0-0-0-0-0-0------0-0-0-0-0---^---0-0
Ab/  ----- 0-0-0-0-0----0-0-0-0-0-0-0------0-0-0-0-0---^---0-0
Ab/ -------0-0-0-0-0----0-0-0-0-0-0-0------0-0-0-0-0---^---0-0
Eb/  ----- 0-0-0-0-0----5-5-5-5-5-5-5------7-7-7-7-7---^---9-9---*9-7-5
Ab/--------0-0-0-0-0----5-5-5-5-5-5-5------7-7-7-7-7---^-- 9-9
Eb/ -------2-2-2-2-2     xxxxxx       xxxxxx       xxxxx       xxx    xxx

Yeah, where the hell did I think I was *( 9-7-5)*

Back to Verse 2

And stranger than your sympathy
I take these things so I donít feel
Iím killiní myself from the inside out
And now my headís been filled with down

And itís hard to lead the life you choose
All I wanted
When all your luckís run out on you
Itís all I wanted
And I canít see when all your dreams are cominí true

Oh yeah, Itís easy to forget, ní yeah
Till you choke on the regrets- yeah
Who the hell did I think I was

Verse 3

Stranger than your sympathy
And all these thoughts you stole from me
Now Iím not sure when I belong
Nowhereís home and Iím all wrong


Eb / ------0-0-0-0-0-0---0-0-0-0-0-0-----0-0-0-0-0----0-0-0-0-0-0
Ab/  ----- 0-0-0-0-0-0---0-0-0-0-0-0-----0-0-0-0-0----0-0-0-0-0-0
Ab/ -------0-0-0-0-0-0-- 0-0-0-0-0-0---- 0-0-0-0-0----0-0-0-0-0-0
Eb/  ----- 0-0-0-0-0-0---0-0-0-0-0-0-----0-0-0-0-0----0-0-0-0-0-0
Eb/ -------2-2-2-2-2-2---4-4-4-4-4-4-----5-5-5-5-5----7-7-7-7-7-7

And I was in love with things I tried to make believe I was

Eb / ------0-0-0-0-0-0----0-0-0-0-0-0-----0-0-0-0-0----0-0-0----0-0-0
Ab/  ----- 0-0-0-0-0-0----0-0-0-0-0-0-----0-0-0-0-0----0-0-0----0-0-0
Ab/ -------0-0-0-0-0-0-- -0-0-0-0-0-0---- 0-0-0-0-0----0-0-0----0-0-0
Eb/  ----- 0-0-0-0-0-0--- 0-0-0-0-0-0-----0-0-0-0-0----0-0-0----0-0-0
Ab/--------0-0-0-0-0-0--- 0-0-0-0-0-0-----5-5-5-5-5----9-9-9----7-7-7
Eb/ -------2-2-2-2-2-2--- 4-4-4-4-4-4-----5-5-5-5-5----9-9-9----7-7-7

And I wouldnít be the one to kneel before the dreams I wanted

Eb / ------0-0-0-0-0-0----0-0-0-0-0-0----0-0-0-0-0-0--- 0-0-0-0-0-0
Ab/  ----- 0-0-0-0-0-0----0-0-0-0-0-0----0-0-0-0-0-0--- 0-0-0-0-0-0
Ab/ -------0-0-0-0-0-0-- -0-0-0-0-0-0----0-0-0-0-0-0--- 0-0-0-0-0-0
Eb/  ----- 4-4-4-4-4-4----5-5-5-5-5-5----4-4-4-4-4-4----5-5-5-5-5-5
Eb/ --------xxxxxxxxx		xxxxxx	xxxxxx    xxxxxx xxx

And all the talk and all the lies were all the empty things disguised as Ė

Eb / ----0-0-0-0-0--^---0-0
Ab/  ----0-0-0-0-0--^---0-0
Ab/ -----0-0-0-0-0--^---0-0
Eb/  ----7-7-7-7-7---^--9-9---*9-7-5
Ab/------7-7-7-7-7---^- 9-9
 Eb/ --------xxxxxxxxx


Back to intro

Stranger than your sympathy
Stranger than your sympathy
Mmm mmmm Mmmm hmmm.

Enjoy! ....and buy GutterFlower
[ Tab from: ]
Related for Sympathy tab