Song name
# A B C D E F G H I J K L M N O P Q R S T U V W X Y Z

Goo Goo Dolls - Iris Acoustic tab

-------------------------------------------------------------------------------
			     Iris Acoustic- The Goo Goo Dolls
-------------------------------------------------------------------------------
I decided to transcribe this song using near standard tuning 
(i tuned down e to D), because a lot of people have been 
looking for a way to play this song without tuning their
guitar to B D D D D D.

I used the highest-rated tab of this 
song (which is in B D D D D D) to help with the verse 
and chorus but the acoustic version has its own interlude 
variations. This is their acoustic version of the song:

http://www.youtube.com/watch?v=roqu_fdLtEw


Tabbed by:exterious

Email:exterious@gmail.com



Tuning: E A D G B [D]

Intro (x2)
D|0--0-0-0-0-0--0-0-0--0-0---0-0-0--0-0-0-0-0--0-0-0-0-0-0-0-|
B|3--3-3-3-3-2--2-2-2--2-2h3-3-3-3--3-3-3-3-3--3-3-3-3-3-3-3-|
G|4--4-4-4-4-4--4-4-4--4-4---4-0-0--0-0-0-0-0--0-0-0-0-0-0-0-|
D|0--0-0-0-0-0--0-0-0--0-0---0-0-5--5-5-5-5-4--4-4-4-4-4-0-0-|
A|x--x-x-x-x-x--x-x-x--x-x---x-x-5--5-5-5-5-5--5-5-5-5-5-5-5-|
E|x--x-x-x-x-x--x-x-x--x-x---x-x-x--x-x-x-x-x--x-x-x-x-x-x-x-|

Verse (x4)
D|---0-0-0-0----0-0-0-0----0-0-0-0----0-0-0-0-|
B|---3-3-3-3----5-5-5-5----3-3-3-3----3-3-3-3-|
G|---0-0-0-0----7-7-7-7----0-0-0-0----0-0-0-0-|
D|---5-5-5-5----0-0-0-0----5-5-5-5----5-5-5-5-|
A|5----------7-------------5-5-5-5----5-5-5-5-|
E|----------------------3----------3----------|

D|---0-0-0-0----0-0-0-0----0-0-0-0----0-0-0-0-|
B|---0-0-0-0----x-x-x-x----3-3-3-3----3-3-3-3-|
G|---7-7-7-7----7-7-7-7----0-0-0-0----0-0-0-0-|
D|---0-0-0-0----0-0-0-0----5-5-5-5----5-5-5-5-|
A|---5-5-5-5----5-5-5-5----5-5-5-5----5-5-5-5-|
E|7----------5----------3----------3----------|

Chorus (x4)
D|0--0-0-0-0-0--0-0-0-0-0--0-0-0-0-0--0-0-0-0-|
B|0--0-0-0-0-0--0-0-0-0-3--3-3-3-3-3--3-3-3-3-|
G|7--7-7-7-7-7--7-7-7-7-0--0-0-0-0-0--0-0-0-0-|
D|0--0-0-0-0-0--0-0-0-0-5--5-5-5-5-5--5-5-5-5-|
A|5--5-5-5-5-7--7-7-7-7-5--5-5-5-5-5--5-5-5-5-|
E|7--7-7-7-7-5--5-5-5-5-3--3-3-3-3-3--3-3-3-3-|

Interlude
D|0--0-0-0-0-0--0-0-0--0-0---0-0-0--0-0-0-0-0--0-0-0-0-0-0-0-|
B|3--3-3-3-3-2--2-2-2--2-2h3-3-3-3--3-3-3-3-3--3-3-3-3-3-3-3-|
G|4--4-4-4-4-4--4-4-4--4-4---4-0-0--0-0-0-0-0--0-0-0-0-0-0-0-|
D|0--0-0-0-0-0--0-0-0--0-0---0-0-5--5-5-5-5-4--4-4-4-4-4-0-0-|
A|x--x-x-x-x-x--x-x-x--x-x---x-x-5--5-5-5-5-5--5-5-5-5-5-5-5-|
E|x--x-x-x-x-x--x-x-x--x-x---x-x-x--x-x-x-x-x--x-x-x-x-x-x-x-|

D|0--0-0-0-0-0--0-0-0--0-0---0-0-0--0-0-0-0-0--0-0-|
B|3--3-3-3-3-2--2-2-2--2-2h3-3-3-3--3-3-3-3-3--3-3-|
G|4--4-4-4-4-4--4-4-4--4-4---4-0-0--0-0-0-0-0--0-0-|
D|0--0-0-0-0-0--0-0-0--0-0---0-0-5--5-5-5-5-4--4-4-|
A|x--x-x-x-x-x--x-x-x--x-x---x-x-5--5-5-5-5-5--5-5-|
E|x--x-x-x-x-x--x-x-x--x-x---x-x-x--x-x-x-x-x--x-x-|

Verse (x2)
D|---0-0-0-0----0-0-0-0----0-0-0-0----0-0-0-0-|
B|---3-3-3-3----5-5-5-5----3-3-3-3----3-3-3-3-|
G|---0-0-0-0----7-7-7-7----0-0-0-0----0-0-0-0-|
D|---5-5-5-5----0-0-0-0----5-5-5-5----5-5-5-5-|
A|5----------7-------------5-5-5-5----5-5-5-5-|
E|----------------------3----------3----------|

D|---0-0-0-0----0-0-0-0----0-0-0-0----0-0-0-0-|
B|---0-0-0-0----x-x-x-x----3-3-3-3----3-3-3-3-|
G|---7-7-7-7----7-7-7-7----0-0-0-0----0-0-0-0-|
D|---0-0-0-0----0-0-0-0----5-5-5-5----5-5-5-5-|
A|---5-5-5-5----5-5-5-5----5-5-5-5----5-5-5-5-|
E|7----------5----------3----------3----------|

Chorus (x4)
D|0--0-0-0-0-0--0-0-0-0-0--0-0-0-0-0--0-0-0-0-|
B|0--0-0-0-0-0--0-0-0-0-3--3-3-3-3-3--3-3-3-3-|
G|7--7-7-7-7-7--7-7-7-7-0--0-0-0-0-0--0-0-0-0-|
D|0--0-0-0-0-0--0-0-0-0-5--5-5-5-5-5--5-5-5-5-|
A|5--5-5-5-5-7--7-7-7-7-5--5-5-5-5-5--5-5-5-5-|
E|7--7-7-7-7-5--5-5-5-5-3--3-3-3-3-3--3-3-3-3-|

Interlude Two
D|0--0-0-0-0-0--0-0-0--0-0---0-0-0--0-0-0-0-0--0-0-0-0-0-0-0-|
B|3--3-3-3-3-2--2-2-2--2-2h3-3-3-3--3-3-3-3-3--3-3-3-3-3-3-3-|
G|4--4-4-4-4-4--4-4-4--4-4---4-0-0--0-0-0-0-0--0-0-0-0-0-0-0-|
D|0--0-0-0-0-0--0-0-0--0-0---0-0-5--5-5-5-5-4--4-4-4-4-4-0-0-|
A|x--x-x-x-x-x--x-x-x--x-x---x-x-5--5-5-5-5-5--5-5-5-5-5-5-5-|
E|x--x-x-x-x-x--x-x-x--x-x---x-x-x--x-x-x-x-x--x-x-x-x-x-x-x-|

D|0--0-0-0-0-0--0-0-0--0-0---0-0----0----0----0----0-----|
B|3--3-3-3-3-2--2-2-2--2-2h3-3-3----3----3----3----3-----|
G|4--4-4-4-4-4--4-4-4--4-4---4-0----0----0----0----0-----|
D|0--0-0-0-0-0--0-0-0--0-0---0-0----0----0-0----2----4---|
A|x--x-x-x-x-x--x-x-x--x-x---x-x-2----4----------------0-|
E|x--x-x-x-x-x--x-x-x--x-x---x-x-------------------------|


 (x3)
D|------7-7-7-9-7-7-7-7-7-7--|
B|------T-T-T-T-T-T-T-T-T-T--| note: T=10
G|7-7-7-7-7-7-7-7-7-7-7-7-7--|
D|0-0-0-0-0-0-0-0-0-0-0-0-0--|
A|---------------------------|
E|---------------------------|
 (x1)
D|0--0-0-0-0-0-0--0-0-0-0-0-0-|
B|0--0-0-0-0-0-0--0-0-0-0-0-0-|
G|7--7-7-7-7-7-7--7-7-7-7-7-7-|
D|0--0-0-0-0-0-0--0-0-0-0-0-0-|
A|5--5-5-5-5-5-5--5-5-5-5-5-5-|
E|7--7-7-7-7-7-7--7-7-7-7-7-7-|

 (x2)
D|------7-7-7-9-7-7-7-7-7-7--|
B|------T-T-T-T-T-T-T-T-T-T--|
G|7-7-7-7-7-7-7-7-7-7-7-7-7--|
D|0-0-0-0-0-0-0-0-0-0-0-0-0--|
A|---------------------------|
E|---------------------------|

D|0--0-0-0-0-0-0--0-0-0-0-0-0----0---0---0---0-----|
B|0--0-0-0-0-0-0--0-0-0-0-0-0----3---3---3---3-----|
G|7--7-7-7-7-7-7--7-7-7-7-7-7----0---0---0---0-----|
D|0--0-0-0-0-0-0--0-0-0-0-0-0--0---2---4---2---0---|
A|5--5-5-5-5-5-5--5-5-5-5-5-5--------------------4-|
E|7--7-7-7-7-7-7--7-7-7-7-7-7----------------------|

D|---0-0-0-0----0-0-0-0----0-0-0-0----0-0-0-0-|
B|---0-0-0-0----0-0-0-0----0-0-0-0----0-0-0-0-|
G|---7-7-7-7----7-7-7-7----7-7-7-7----7-7-7-7-|
D|---0-0-0-0----0-0-0-0----0-0-0-0----0-0-0-0-|
A|---5-5-5-5-4----------5----------5----------|
E|7-------------------------------------------|

D|---0-0-0-0-0----0-0-0-0-------------|
B|---0-0-0-0-0----0-0-0-0-------------|
G|---7-7-7-7-7----7-7-7-7-------------|
D|---0-0-0-0-0----0-0-0-0-------------|
A|---5-5-5-5-5----5-5-5-5-------------|
E|7------------5----------3-----------|

Chorus (x4)
D|0--0-0-0-0-0--0-0-0-0-0--0-0-0-0-0--0-0-0-0-|
B|0--0-0-0-0-0--0-0-0-0-3--3-3-3-3-3--3-3-3-3-|
G|7--7-7-7-7-7--7-7-7-7-0--0-0-0-0-0--0-0-0-0-|
D|0--0-0-0-0-0--0-0-0-0-5--5-5-5-5-5--5-5-5-5-|
A|5--5-5-5-5-7--7-7-7-7-5--5-5-5-5-5--5-5-5-5-|
E|7--7-7-7-7-5--5-5-5-5-3--3-3-3-3-3--3-3-3-3-|

Outro (x2)
D|---0-0-0-0----0-0-0-0----0-0-0-0----0-0-0-0-|
B|---0-0-0-0----0-0-0-0----0-0-0-0----0-0-0-0-|
G|---7-7-7-7----7-7-7-7----7-7-7-7----7-7-7-7-|
D|---0-0-0-0----0-0-0-0----0-0-0-0----0-0-0-0-|
A|---5-5-5-5-4----------5----------5----------|
E|7-------------------------------------------|
                            end with
D|---0-0-0-0-0----0-0-0-0----|-0----|
B|---0-0-0-0-0----0-0-0-0----|-3----|
G|---7-7-7-7-7----7-7-7-7----|-0----|
D|---0-0-0-0-0----0-0-0-0----|-5----|
A|---5-5-5-5-5----5-5-5-5----|-5----|
E|7------------5----------3--|-3----|




| /  slide up
| \  slide down
| h  hammer-on
| p  pull-off
| ~  vibrato
| +  harmonic
| x  Mute note
===============================================================================
Tap to rate this tab
 
# A B C D E F G H I J K L M N O P Q R S T U V W X Y Z