Song name
# A B C D E F G H I J K L M N O P Q R S T U V W X Y Z

Goo Goo Dolls - Better Days tab

----------------------------------------------------------------------------
			     BETTER DAYS - Goo Goo Dolls
----------------------------------------------------------------------------
Tabbed by: James Wolken	
Email: jimb0409@cox.net

Tuning: E A D G B E

 Intro & Verse 1
 (Piano)
  
             3x 
|-----9-9-5-5--||-------------|
|--------------||-----8-8-7-7-|
|-7-7----------||-7-7---------|
|--------------||-0-0---------|
|--------------||-------------|
|--------------||-------------|

Verse 2 is the same as verse 1, but with a D chord strummed over the piano

 Chorus                              
  G               A                            D
                                 2x
|----------------------------------||-----9-9--2---2---2----|
|---------------------------------2||----------3---3---3----|
|----------------------------------||-7-7------2---2---2----|
|-5-5-5-5-5-5-5-5-7-7-7-7-7-7-7-7--||----------0---0---0----|
|-5-5-5-5-5-5-5-5-7-7-7-7-7-7-7-7-2||-----------------------|
|-3-3-3-3-3-3-3-3-5-5-5-5-5-5-5-5--||-----------------------|



Interlude
                             D               G
                        2x                                  2x
|-------------------------||----------------------------------||
|-------------------------||----------------------------------||
|-6-7--6-7-9--6-7--6-7-9--||-7-7-7-7-7-7-7-7------------------||
|-------------------------||-7-7-7-7-7-7-7-7-5-5-5-5-5-5-5-5--||
|-------------------------||-5-5-5-5-5-5-5-5-5-5-5-5-5-5-5-5--||
|-------------------------||-----------------3-3-3-3-3-3-3-3--||


| /  slide up
| \  slide down
| h  hammer-on
| p  pull-off
| ~  vibrato
| +  harmonic
| x  Mute note


============================================================================


Tap to rate this tab
# A B C D E F G H I J K L M N O P Q R S T U V W X Y Z