Song name
# A B C D E F G H I J K L M N O P Q R S T U V W X Y Z

Goo Goo Dolls - Think About Me tab

Tabbed By: Alejandro Manzano

Hey! This is another great song off of Gutterflower!
Check out all my other (correct) tabs, Big Machine(correct),
Here Is Gone(correct), Sympathy(real correct), and
Name(correct). This song rings really nicely. Rock On Goo!!


( ) = play really softly
 ^  = hammer
 /  = slide

Correct Tuning:

E=D
B=D
G=G
D=D
A=G
E=C

Intro/Chorus/Outro:
   --------0-0-0-0-0-0-0-0-0-------0-0-0-0-0-0-0-0-0-0-0-0--
   --------0-0-0-0-0-0-0-0-0-------0-0-0-0-0-0-0-0-0-0-0-0--
   -(0)--0-0-0-0-0-0-0-0-0-0-(0)0--0-0-0-0-0-0-0-0-0-0-0-0--
   --4^5-5-5-5-5-4-4-4-4-4-4--0-5--5-5-5-5-5-5-5-5-5-5-5-5--
   --0---0-0-0-0-0-0-0-0-0-0--4-5--5-5-5-5-5-5-5-5-5-5-5-5--
   ---------------------------4-0--0-0-0-0-0-0-0-0-0-0-0-0--

Verse:
   --0-0-0-0-0-0-0-0-0-0-0-0-0-----0-0-0-0-0-0-0-0-0-0-0-0--
   --0-0-0-0-0-0-0-0-0-0-0-0-0-(0)-0-0-0-0-0-0-0-0-0-0-0-0--
   --0-0-0-0-0-0-0-0-0-0-0-0-0--0--0-0-0-0-0-0-0-0-0-0-0-0--
   --7-7-7-7-7-9-9-9-9-9-9-9-9--5--5-5-5-5-5-5-5-5-5-5-5-5--
   --7-7-7-7-7-9-9-9-9-9-9-9-9--5--5-5-5-5-5-5-5-5-5-5-5-5--
   -----------------------------0--0-0-0-0-0-0-0-0-0-0-0-0--

   --0-0-0-0-0-0-0-0-0-0-0-0-0-----0-0-0-0-0-0-0-0-0-0-0-0--
   --0-0-0-0-0-0-0-0-0-0-0-0-0-(0)-0-0-0-0-0-0-0-0-0-0-0-0--
   --0-0-0-0-0-0-0-0-0-0-0-0-0--0--0-0-0-0-0-0-0-0-0-0-0-0--
   --0-0-0-0-0-0-0-0-0-0-0-0-0--5--5-5-5-5-5-5-5-5-5-5-5-5--
   --4-4-4-4-4-2-2-2-2-2-2-2-2--5--5-5-5-5-5-5-5-5-5-5-5-5--
   --4-4-4-4-4-2-2-2-2-2-2-2-2--0--0-0-0-0-0-0-0-0-0-0-0-0--

Pre-Chorus:
   -----0-0------0-0-0-0-0-0-0----0-0-0-0-0-0-0-0-0-0-0-0--
   --(0)0-0------0-0-0-0-0-0-0-(0)0-0-0-0-0-0-0-0-0-0-0-0--
   ---0-0-0--0---0-0-0-0-0-0-0--0-0-0-0-0-0-0-0-0-0-0-0-0--
   ---0-0-0--4/5---5-5-5-5-5-5--5-5-5-5-5-5-5-5-5-5-5-5-5--
   ---4-4-4--4-----4-4-4-4-4-4--5-5-5-5-5-5-5-5-5-5-5-5-5--
   ---4-4-4-(4)----4-4-4-4-4-4--0-0-0-0-0-0-0-0-0-0-0-0-0--

   -----0-0-0-0-0-0-0-0-0-0-0-0--0-0-0-0-0-0-0-0-0-0-0-0-0------0-0-0-0-0-0-0-0-0-0-0-0--
   --(0)0-0-0-0-0-0-0-0-0-0-0-0--0-0-0-0-0-0-0-0-0-0-0-0-0--(0)-0-0-0-0-0-0-0-0-0-0-0-0--
   ---0-0-0-0-0-0-0-0-0-0-0-0-0--0-0-0-0-0-0-0-0-0-0-0-0-0---0--0-0-0-0-0-0-0-0-0-0-0-0--
   ---0-0-0-0-0-0-0-0-0-0-0-0-0--2-2-2-2-2-2-2-2-2-2-2-2-2/5-5--5-5-5-5-5-5-5-5-5-5-5-5--
   ---4-4-4-4-4-4-4-4-4-4-4-4-4--2-2-2-2-2-2-2-2-2-2-2-2-2/5-5--5-5-5-5-5-5-5-5-5-5-5-5--
   ---4-4-4-4-4-4-4-4-4-4-4-4-4------------------------------0--0-0-0-0-0-0-0-0-0-0-0-0--

Pre-Solo:
   --------0-----------0-----------
   --------0-----0-----0-----------
   -(0)--0---0---0---0---0---0-----
   --4^5-------0-----0--(0)-(0)----
   --0--------------------------5--
   ----------------4-------2----0--

Solo:
   --0-0-0-0-0-0-0-0-0-0-0-0-0-0-0-0-0-0-0-0-0-0-0-0-0--
   --0-0-0-0-0-0-0-0-0-0-0-0-0-0-0-0-0-0-0-0-0-0-0-0-0--
   --0-0-0-0-0-0-0-0-0-0-0-0-0-0-0-0-0-0-0-0-0-0-0-0-0--
   --0-0-0-0-0-5-5-5-5-5-5-5-5-0-0-0-0-0-0-0-0-5-5-5-5--
   --4-4-4-4-4-5-5-5-5-5-5-5-5-4-4-4-4-4-2-2-2-5-5-5-5--
   --4-4-4-4-4-0-0-0-0-0-0-0-0-4-4-4-4-4-2-2-2-0-0-0-0--

   --0-0-0-0-0-0-0-0-0-0-0-0-0-0-0-0-0-0-0-0-0-0-0-0--
   --0-0-0-0-0-0-0-0-0-0-0-0-0-0-0-0-0-0-0-0-0-0-0-0--
   --0-0-0-0-0-0-0-0-0-0-0-0-0-0-0-0-0-0-0-0-0-0-0-0--
   --0-0-0-0-0-5-5-5-5-5-5-5-5-0-0-0-0-0-0-0-0-5-5-5--
   --4-4-4-4-4-5-5-5-5-5-5-5-5-4-4-4-4-4-2-2-2-5-5-5--
   --4-4-4-4-4-0-0-0-0-0-0-0-0-4-4-4-4-4-2-2-2-0-0-0--

Post Solo:
   --------0-----------0-----------
   --------0-----0-----0-----------
   -(0)--0---0---0---0---0---0-----
   --4^5-------0-----0--(0)-(0)----
   --0--------------------------5--
   ----------------4-------2----0--

Last Chord:
   --0--
   --0--
   --0--
   --0--
   --0--
   --7--

And Thats it! Enjoy! RIDFA!
Tap to rate this tab
 
# A B C D E F G H I J K L M N O P Q R S T U V W X Y Z