Song name
# A B C D E F G H I J K L M N O P Q R S T U V W X Y Z

Goo Goo Dolls - Acoustic#3 tab

Tabbed By: Alejandro Manzano

This is a really simple but cool song.
The string arrangement is really pretty.
Fun to play.

/ = slide
x = mute

Correct Tuning: (Standard)

E=E
B=B
G=G
D=D
A=A
E=E

Intro:
   -------------------------------------------------------------------
   -------------------------------------------------------------------
   ------0-----0---------0-----0---------0-----0---------------0------
   ----------0---0-----------0---0-----------0---0-------0---0---0----
   ----2---3-------2---2---3-------2---2---3-------2---2---3-------2--
   --3---------------3---------------3---------------3----------------

Verse 1:
   -------------------------------------------------------------------
   -------------------------------------------------------------------
   ------------0---------------0---------------0---------0-----0------
   ------0---0---0-------0---0---0-------0---0---0-----------0---0----
   ----2---3-------2---2---3-------2---2---3-------2---2---3-------2--
   --3---------------3---------------3---------------3----------------

   ---------------------------------------------------------------------
   ---------------------------------------------------------------------
   ------------0---------------0---------------0---------0-----0--------
   ------0---0---0-------0---0---0-------0---0---0-----------0---0------
   ----2---3-------2---2---3-------2---2---3-------2---2---3-------2/5--
   --3---------------3---------------3---------------3------------------

Chorus:
   -------------------------------------------------------------------
   -------------------------------------------------------------------
   ------0-----0---------0-----0---------0-----0---------0-----0------
   ----7-----5---5-0---5---------0-----7-----5---5-0---5---------0----
   --5-----7---------3-------5-----0-5-----7---------3-------5-----0--
   ------------------------3-------------------------------3----------

   -------------------------------------------------------------------
   -------------------------------------------------------------------
   ------0-----0---------0-----0---------0-----0---------0-----0------
   ----7-----5---5-0---5---------0-----------0---0-----------0---0----
   --5-----7---------3-------5-----2---2---2-------2---2---3-------2--
   ------------------------3---------3---------------3----------------

Interlude:
   -----------------------------------
   -----------------------------------
   ------0-----0---------0-----0------
   ----------0---0-----------0---0----
   ----2---3-------2---2---3-------2--
   --3---------------3----------------

Verse 2:
   -------------------------------------------------------------------
   -------------------------------------------------------------------
   ------0-----0---------0-----0---------0-----0---------0-----0------
   ----------0---0-0---------0---0-----------0---0-----------0---0----
   ----2---3-----------2---3-------2---2---3-------2---2---3-------2--
   --3---------------3---------------3---------------3----------------

   ---------------------------------------------------------------------
   ---------------------------------------------------------------------
   ------0-----0---------0-----0---------0-----0---------0-----0--------
   ----------0---0-----------0---0-0---------0---0-----------0---0------
   ----2---3-------2---2---3-----------2---3-------2---2---3-------2/5--
   --3---------------3---------------3---------------3------------------

Verse 3:
   -------------------------------------------------------------------
   -------------------------------------------------------------------
   ------0-----0---------0-----0---------0-----0---------0-----0------
   ----------0---0-----------0---0-----------0---0-----------0---0----
   ----2---3-------2---2---3-------2---2---3-------2---2---3-------2--
   --3---------------3---------------3---------------3----------------

   ---------------------------------------------------------------------
   ---------------------------------------------------------------------
   ------0-----0---------0-----0---------0-----0---------------0--------
   ----------0---0-----------0---0-----------0---0-------0---0---0------
   ----2---3-------2---2---3-------2---2---3-------2---2---3-------2/5--
   --3---------------3---------------3---------------3------------------

Outro:
   ----------------------------------3--
   ----------------------------------3--
   ------0-----0---------0-----0-----0--
   ----------0---0-----------0---0-0-0-- (Let Ring)
   ----2---3-------2---2---3---------x--
   --3---------------3---------------3--


Thats it. Great Song!
Tap to rate this tab
 
# A B C D E F G H I J K L M N O P Q R S T U V W X Y Z