Song name
# A B C D E F G H I J K L M N O P Q R S T U V W X Y Z

Good Charlotte - Lifestyles Of The Rich & Famous tab

tuning: normal (e,a,d,g,b,e,) low to high

 intro: (just drums and feed back


  main verse:
1|---------------------------------|
2|---------------------------------|
3|----6-6----8-8----3-3----6-6-----|
4|----6-6----6-6----4-4----4-4-----|
5|----4-4----6-6----4-4----4-4-----|
6|------------------2-2------------|


pre-chorus:

1|---------------------------------------------------------|
2|---------------------------------------------------------|
3|--66666666-----44444444----33333333----8888888888--------|
4|--66666666-----22222222----44444444----6666666666--------|  repeat until chorus
5|--44444444-----22222222----44444444----6666666666--------|
6|---------------22222222----------------------------------|


  chorus:

1|-----------------------------------------|  repeat 
2|-----------------------------------------|
3|--666666---888888------------666666------|
4|--666666---888888---444444---666666------|
5|--444444---666666---444444---444444------|
6|--------------------222222---------------|


  pause time: just sirens, and drums n' stuff

  heavy chorus:  (just use distortion and slow dow the regular chorus)

1|---------------------------------------|
2|---------------------------------------|
3|--66666--888888--33333--666666---------|
4|--66666--888888--44444--666666---------| 
5|--44444--666666--44444--444444---------|
6|-----------------22222-----------------|

  outro:
1|---------------------------------------|
2|---------------------------------------|
3|--6666666666666--88888888888888--------|  isnt the exact number of strums is the rythem
4|--6666666666666--88888888888888--------|  though
5|--4444444444444--66666666666666--------|
6|---------------------------------------|
Tap to rate this tab
# A B C D E F G H I J K L M N O P Q R S T U V W X Y Z