Song name
# A B C D E F G H I J K L M N O P Q R S T U V W X Y Z

Good Old War - Over And Over tab

Capo on IV

Intro/Outro/Post-Chorus

    C                                G
E|--------------------------------------------3--------3--------------------------------------|
B|--1-----------1--------------------3--------------------------------1-----------1-----------|
G|--0--------------0-----------------0--------------------------------0--------------0--------|
D|--2--0--2-----------2--------------0-----------0-----------------0--2--0--2-----------2-----|
A|--3--------3-----------2--3--2--0--2--2-----------------3--2--3-----3--------3--------------|
E|-----------------------------------3-----3--------3-----------------------------------------|



E|-------------------------------------|
B|--------------3----------------------|
G|--------------0----------------------|
D|--------------0----------0-----------|
A|--2--3--2--0--2--2p0--------3--2--3--|
E|--------------3-------3--------------|

^This is just an idea of the licks that Dan plays and which notes he picks while 
strumming the chord. The same goes for the rest of the tab.

Verse

    C            B/G              C                             F
E|--------------------------------------------------------------1--------1--------1-----------|
B|--1--1--------1--------3-----3--1--1--------1--------3-----3--1--------------------------1--|
G|--0-----0-----------------0-----0-----0-----------------0-----2--2--------2--------2--------|
D|--2--------2--------------------2--------2--------------------3-----3--------3--------3-----|
A|--3--------------2--2-----------3--------------2--2-----------3-----------------------------|
E|--------------------------------------------------------------------------------------------|


Chorus
    Am                            F                             C
E|--0--------0--------0--------0--1--------1--------1--------1--0--------0--------0--------0--|
B|--1-----------------------------1-----------------------------1-----------------------------|
G|--2--2--------2--------2--------2--2--------2--------2--------0--0--------0--------0--------|
D|--2-----------------------------3-----3--------3--------3-----2-----------------------------|
A|--0-----0--------0--------0-----3-----------------------------3-----3--------3--------3-----|
E|--------------------------------------------------------------------------------------------|


    G
E|--3--------3--------3--------3--|
B|--3-----------------------------|
G|--0--0--------0--------0--------|
D|--0-----------------------------|
A|--2-----2--------2--------2-----| (x2)
E|--3-----------------------------|

On the second go through of the chorus, he just ends on couple of G strums

"Over and Over..."
    C  Dm
E|--0--1--|
B|--1--3--|
G|--0--2--|
D|--2--0--|
A|--3-----|
E|--------|
Tap to rate this tab
# A B C D E F G H I J K L M N O P Q R S T U V W X Y Z