Guitaretab - guitar tabs
Song name
# A B C D E F G H I J K L M N O P Q R S T U V W X Y Z

Good Old War - Coney Island tab

Tabbed by: ohhh shoot
Email: myspace.com/ohshoot_itserik

Tuning: Standard: EADGBe (with capo on 5th)

NOTE: 
Play using your thumb plucking the notes 
and your index finger hitting all the 0's on the B & e string, 
they should be played on a down stroke on the first and up on the next. 


Tab is relative to capo. 


Intro/Bridge
e|-----0-0--0-0---0-0----0-0----0-0---0-0----0-0----0-0----------------------|
B|-----0-0--0-0---0-0----0-0----0-0---0-0----0-0----0-0----------------------|
G|---0-----0-----0-----0------0-----0------0------0--------------------------|
D|--4-----4-----3-----3------2-----2------2------2---------------------------|
A|---------------------------------------------------------------------------|
E|---------------------------------------------------------------------------|

Intro continued...
e|-----0-0----0-0----0-0-----0-0----0-0----0-0----0-0----0-0-----------------|
B|-----0-0----0-0----0-0-----0-0----0-0----0-0----0-0----0-0-----------------|
G|---0------0------0--------0-----0------0------0------0---------------------|
D|--4------4------3------2p0-------------------------------------------------|
A|-------------------------------3------3------3------3------2---------------|
E|---------------------------------------------------------------------------|
[ Tab from: http://www.guitaretab.com/g/good-old-war/169539.html ]
Verse: X2
e|-----0-0----0-0-----0-0---0-0----0-0----0-0----0-0--------0-0-----0-0-----|
B|-----0-0----0-0-----0-0---0-0----0-0----0-0----0-0--------0-0-----0-0-----|
G|---0------0-------0-----0------0------0------0----------0-------0---------|
D|----------------4-----4------3------3------2------2-----------------------|
A|--3------3------------------------------------------3--0------0-----------|
E|--------------------------------------------------------------------------|

Verse continued...
e|-----0-0------0-0----0-0----0-0----0-0-------------------------------------|
B|-----0-0------0-0----0-0----0-0----0-0-------------------------------------|
G|---0--------0------0------0------0-----------------------------------------|
D|---------------------------------------------------------------------------|
A|--------0h2-------3------3------3-----3-2----------------------------------|
E|--3------------------------------------------------------------------------|

Chorus: x2
e|-----0-0-----0-0----0-0------0-0----0-0----0-0-----0-0---------------------|
B|-----0-0-----0-0----0-0------0-0----0-0----0-0-----0-0---------------------|
G|---0-------0------0--------0------0------0-------0-------------------------|
D|---------------------------------3-----3-------2------2--------------------|
A|--0------0--------------0h2-----------------------------3------------------|
E|-----------------3---------------------------------------------------------|

Chorus continued...
e|-----0-0-----0-0-----0-0------0-0-----0-0----0-0----0-0-----0-0------------|
B|-----0-0-----0-0-----0-0------0-0-----0-0----0-0----0-0-----0-0------------|
G|---0-------0-------0--------0-------0------0------0-------0----------------|
D|---------------------------------------------------------------------------|
A|--0-------0-------------0h2-------3------3------3------3---------3-2-------|
E|-----------------3---------------------------------------------------------|

Outro = play the second part of the chorus...

but replace...
e|-------|
B|-------|
G|-------|
D|-------|
A|-3-2---|
E|-------|

with....
e|-0-0----|
B|-0-0----|
G|-0-0----|
D|-0-0----|
A|-3-3----|
E|--------|



And that's all folks... Enjoy!

Related for Coney Island tab
Advertisement will be closed in 10 seconds