Song name
# A B C D E F G H I J K L M N O P Q R S T U V W X Y Z

Good Old War - Just Another Day tab

  Just Another Day -Good Old War

  Standard Tuning (EADGBe)
  Capo 5th fret


  The strumming pattern is mainly a downstroke across all the strings and
  then a quick down up across the top three strings. It keeps this pattern
  throughout the intro and verse

  Intro
  
  - - - - - - - - - - - - - - - - - - - - - - - - - - - - - - - - - - - - - fig. 1  - - - - - A

                                                                                .1|          .2|
E|-3---3-3--3---3-3--5---5-5--5---5-5-||--7---7--7---7---7--7--5---5-5--5---5-5---|--3-3-3-3---|
A|-0---0-0--0---0-0--3---3-3--3---3-3-||--0---0--0---0---0--0--3---3-3--3---3-3--o|--0-0-0-0---|
D|-0---0-0--0---0-0--0---0-0--0---0-0-||-(0)--0--0--(0)--0--0--0---0-0--0---0-0---|--0-0-0-0---|
G|-0--------0--------4--------4-------||--0----------0---------4--------4---------|--0-0-0-0---|
B|-2--------2--------5--------5-------||--x----------x---------5--------5--------o|--2-2-2-2---|
e|-3--------3-------------------------||--7----------7----------------------------|--3-3-3-3---|

  The open in () can be played at twelve as well
  It sounds better there, but it's much easier to play it open

  The verse keeps the same patter as the intro, so I'll just write the
  chords down with the number of beats you keep it above

  Verse

  - - - - - - - fig. 2

     1 2 3 4 | 1 2 3 4 | 1 2 3 4 | 1 2 3 4 | 1 2 3 4 | 1 2 3 4
e|---3-----3-|-3-------|-----3---|-3-------|-0-------|-2-----------------|
B|---0-----1-|-0-------|-----1---|-0-------|-1-------|-3-----------------|
G|---0-----0-|-0-------|-----0---|-0-------|-2-------|-2--------[ play ]-|
D|---0-----2-|-0-------|-----2---|-0-------|-2-------|-0--------[fig. 1]-| x2
A|---2-----0-|-2-------|-----3---|-2-------|-0-------|-0-----------------|
E|---3-----3-|-3-------|---------|-3-------|---------|-------------------|

  The second time you play through, substitute the second (X 5 4 0 3 5) in
  fig. 1 for (10 9 0 0 10 10)
  
  Pre-Chorus

e|-----0---------0----|----0-------0------|--------3--------|--
B|-------1---------1--|------0-------0----|----0------------|--
G|---------2----------|--------2----------|------0---0------|--
D|--------------------|-------------------|-----------------|--
A|---0--------0-------|--2-------2-----0--|-----------------|--
E|--------------------|-------------------|--3---------2p0--|--

e|--------0-----------|----0-----------0--|--------2-------3|-----------|
B|----0---------------|------1-----1------|----3-------3----|-----------|
G|------0-------------|--------2-----2----|------2-------0--|--[ play ]-|
D|--2-----------------|-------------------|--0-------0------|--[fig. 2]-|
A|-----------3--2p0---|--0-------0--------|-----------------|-----------|
E|--------------------|-------------------|-----------------|-----------|


  Chorus

  - - - - - - - - - - - - - - - - - - - - - - - - - - fig. 3

  - - - - - - - - - - - -  B|

e|---0--0-0--0--0-0--0--0-0---3--|------------|-----------2-|--2--2-2--2-|
B|---1--1-1--1--1-1--1--1-1---0--|------------|-----------3-|--3--3-3--3-|
G|---0--0-0--0--0-0--0--0-0---0--|------------|--[play]---2-|--2--2-2--2-|
D|---2-------2-------2--------0--|------0-----|--[ B  ]---0-|--0--0-0--0-|
A|---3-------3-------3--------2--|---2--------|-------------|------------|
E|----------------------------3--|---------3--|-------------|------------|


Order:

Intro
Verse
Pre-Chorus
Chorus
Intro
Verse
Pre-Chorus
Chorus
[Play A]
Verse (only second half)
Pre-Chorus
Fig. 3
Chorus
Intro

End on
e|--3--|
B|--0--|
G|--0--|
D|--0--|
A|--2--|
E|--3--|

Tap to rate this tab
# A B C D E F G H I J K L M N O P Q R S T U V W X Y Z