Song name
# A B C D E F G H I J K L M N O P Q R S T U V W X Y Z

Good Weather Forecast - Miss You chords

Highlighted       Show chord diagrams
These are the chords for the song "Miss You" by Good Weather Forecast. Enjoy playing!

You can listen to the song on http://www.youtube.com/watch?v=mrwTbGGzNas

G    C    Em    D    3x

    G                            
I'm sitting on the beach and the sun goes down
    C                                               Em
The waves play their song to the silence around, oh oh
            D
I'm feeling lonely

  G
I wish you would be here and share this moment with me
       C                                 Em
When I close my eyes, it's you I see, oh oh
              D
Why can't you be there?

G    C    Em    D

G                D
   Why can't you be there?
            C               C2
Oh, hold me close in your embrace
G                D                      C           C2
   Why can't you be there and watch the sunset with me?

G    C    Em    D    2x

  G
I miss your eyes and miss your smile
  C                                        Em
I miss your lips and I miss your touch, oh oh
            D
I'm feeling lonely

  G
I cannot describe with any words
    C                                          Em
How much I love you, how much you're worth, oh oh
              D 
Why can't you be there?

G    C    Em    D

G                D
   Why can't you be there?
            C               C2
Oh, hold me close in your embrace
G                    D                      C           C2
   And why can't you be there and watch the sunset with me?

G    D    C    C2    2x

Solo:
e|-------------------------87-----7--87-----7---|
H|/8~~---88/12~10~---88/10~--10810-8~--10810-10~|
G|----7h9---------7h9---------------------------|
D|----------------------------------------------|
A|----------------------------------------------|
E|----------------------------------------------|

e|----------------------------108787----108787-----87----|
H|---8-8~---88/12~10~---88/10~------108~------10810--8~~-|
G|7h9-9--7h9---------7h9---------------------------------|
D|-------------------------------------------------------|
A|-------------------------------------------------------|
E|-------------------------------------------------------|

G                D
   Why can't you be there?
            C               C2
Oh, hold me close in your embrace
G                D                      C           C2    G
   Why can't you be there and watch the sunset with me?

MFJ
Tap to rate this tab
# A B C D E F G H I J K L M N O P Q R S T U V W X Y Z