Song name
# A B C D E F G H I J K L M N O P Q R S T U V W X Y Z

Gordie Sampson - Sunburn tab

-------------------------------------------------------------------------------
			    Sunburn - Gordie Sampson
-------------------------------------------------------------------------------
Tabbed by: Tyler123
Email: leaffan30@hotmai.com

Tuning: Standard (EADGBe)
*It's mostly downstokes in terms of strumming with the exception of some A chords, and the Outro.
*x = mute note

Verse
     E    G#m    A    C#m     (Play twice)
e|---x-----4-----0-----4---|
B|---x-----4-----2-----5---|
G|---1-----4-----2-----6---|
D|---2-----6-----2-----6---|
A|---2-----6-----0-----4---|
E|---x-----4-----x-----x---|
Pre-chorus
     A     B     C#m     (Play three times)
e|---0-----2-----4---|
B|---2-----3-----5---|
G|---2-----3-----6---|
D|---2-----3-----6---|
A|---0-----2-----4---|
E|---x-----------x---|
Chorus (Double-time)
    F#m    E    F#m    E    F#m    E    C#m    B     (Play Twice)     
e|---2-----x-----2-----x-----2-----x-----4-----2---|
B|---2-----x-----2-----x-----2-----x-----5-----4---|
G|---2-----1-----2-----1-----2-----1-----6-----4---|
D|---4-----2-----4-----2-----4-----2-----6-----4---|
A|---4-----2-----4-----2-----4-----2-----4-----2---|
E|---2-----x-----2-----x-----2-----x-----x---------|
Chorus cont'd
     A   Amaj7  F#m    A     B    C#m    A     B    C#m
e|---0-----0-----2-----0-----2-----4-----0-----2-----4---|
B|---2-----2-----2-----2-----3-----5-----2-----4-----5---|
G|---2-----1-----2-----2-----3-----6-----2-----4-----6---|
D|---2-----2-----4-----2-----3-----6-----2-----4-----6---|
A|---0-----0-----4-----0-----2-----4-----0-----2-----4---|
E|---x-----x-----2-----x-----------x-----x-----------x---|
Verse
     E    G#m    A    C#m     (Play once)
e|---x-----4-----0-----4---|
B|---x-----4-----2-----5---|
G|---1-----4-----2-----6---|
D|---2-----6-----2-----6---|
A|---2-----6-----0-----4---|
E|---x-----4-----x-----x---|
Pre-chorus
     A     B     C#m     (Play three times)
e|---0-----2-----4---|
B|---2-----3-----5---|
G|---2-----3-----6---|
D|---2-----3-----6---|
A|---0-----2-----4---|
E|---x-----------x---|
Chorus (Double-time)
    F#m    E    F#m    E    F#m    E    C#m    B     (Play twice)     
e|---2-----x-----2-----x-----2-----x-----4-----2---|
B|---2-----x-----2-----x-----2-----x-----5-----4---|
G|---2-----1-----2-----1-----2-----1-----6-----4---|
D|---4-----2-----4-----2-----4-----2-----6-----4---|
A|---4-----2-----4-----2-----4-----2-----4-----2---|
E|---2-----x-----2-----x-----2-----x-----x---------|
Chorus cont'd
     A   Amaj7  F#m    A     B    C#m    A     B    C#m
e|---0-----0-----2-----0-----2-----4-----0-----2-----4---|
B|---2-----2-----2-----2-----3-----5-----2-----4-----5---|
G|---2-----1-----2-----2-----3-----6-----2-----4-----6---|
D|---2-----2-----4-----2-----3-----6-----2-----4-----6---|
A|---0-----0-----4-----0---- 2-----4-----0-----2-----4---|
E|---x-----x-----2-----x-----------x-----x-----------x---|
Bridge
   Cmaj7 Gmaj7 Dmaj9   A     B     A     B      (Play once)
e|--x-----2-----x------0-----2-----0-----2---|
B|--0-----3-----2------2-----4-----2-----4---|
G|--0-----4-----2------2-----4-----2-----4---|
D|--2-----5-----0------2-----4-----2-----4---|
A|--3-----0-----0------0-----2-----0-----2---|
E|--x-----0-----x------x-----------x---------|
Chorus (Double-time)
    F#m    E    F#m    E    F#m    E    C#m    B     (Play twice)     
e|---2-----x-----2-----x-----2-----x-----4-----2---|
B|---2-----x-----2-----x-----2-----x-----5-----4---|
G|---2-----1-----2-----1-----2-----1-----6-----4---|
D|---4-----2-----4-----2-----4-----2-----6-----4---|
A|---4-----2-----4-----2-----4-----2-----4-----2---|
E|---2-----x-----2-----x-----2-----x-----x---------|
Outro
    F#m    E    F#m    E    F#m    E    C#m    B/E     (Play twice - End    
e|---2-----x-----2-----x-----2-----x-----4-----2-x---|  on E the 2nd time
B|---2-----x-----2-----x-----2-----x-----5-----4-x---|  through - and slow
G|---2-----1-----2-----1-----2-----1-----6-----4-1---|  strumming down 
D|---4-----2-----4-----2-----4-----2-----6-----4-2---|  gradually)
A|---4-----2-----4-----2-----4-----2-----4-----2-2---|
E|---2-----x-----2-----x-----2-----x-----x-------x---|
Outro cont'd
    A   Amaj7  F#m    A     B    C#m     (Play slow - Pick
e|---0-----0-----2-----0-----2-----4---|  somewhat) 
B|---2-----2-----2-----2-----3-----5---|
G|---2-----1-----2-----2-----3-----6---|
D|---2-----2-----4-----2-----3-----6---|
A|---0-----0-----4-----0---- 2-----4---|
E|---x-----x-----2-----x-----------x---|
                                                      www.gordiesampson.com
===============================================================================
Tap to rate this tab
# A B C D E F G H I J K L M N O P Q R S T U V W X Y Z