Song name
# A B C D E F G H I J K L M N O P Q R S T U V W X Y Z

Gorefest - Confessions Of A Serial Killer tab

(Work in progress)

INTRO

1-ST GUITAR

|-----------|
|-3-6--7-3--|
|-----------|
|-----------|
|-----------|
|-----------|

2-ND GUITAR

|-6-8-6-----|
|-------6-5-|
|-----------|
|-----------|
|-----------|
|-----------|

|-----------------------------------------------------------------------|
|-----------------------------------------------------------------------|
|---------------------------------------------------------------4-5-4---|
|---------------------------------------------------------4-5---------5-|
|-----------------------------------------------------------------------|
|-2-2-2-2--2-2-2-2--2-2-2-2--2-2-2-2--2-2-2-2--2-2-2-2-2----------------|

|--------------------------------------------------------------------|
|--------------------------------------------------------------------|
|--------------------------------------------4-5-4-------------------|
|-4--2-2-2-4--3-2-2-2-3--4--2-2-2-4--3---2-3-------------------------|
|--------------------------------------0-----------------------------|
|--------------------------------------------------------------------|

|-------------------------|
|-------------------------|
|-------------------4-5-4-|
|-------------3-3-3-------|
|-------3-3-3-------------|
|-2-2-2-------------------|


|--------------------------------------------------------------------|
|--------------------------------------------------------------------|
|--------------------------------------------------------------------|
|-------------------4-5-4--------------------------------------------|
|-4-5-2-4--4-5-2-4---------------------------------------------------|
|-2-3-0-2--2-3-0-2---------------------------------------------------|
Tap to rate this tab
 
# A B C D E F G H I J K L M N O P Q R S T U V W X Y Z