Song name
# A B C D E F G H I J K L M N O P Q R S T U V W X Y Z

Gorillaz - Superfast Jellyfish tab

This is done on bass but sounds good on guitar. And this is my first tab
e|----------------------|
B|----------------------|
G|----------------------|
D|----------------------|  PLAY THROUGH HOLE SONG
A|-----1-3-------6-5--5-|
E|---3---------5--------|

CHORUS

PLAY THE MAIN RIFF AND AT THE END GO

e|------------|
B|------------|
G|------------|
D|------------|
A|---6-5--5---|
E|--5---------|

http://www.youtube.com/watch?v=nAgeir1YlJ0 is me playing it.

OR IF YOU WANT INSTEAD OF
e|------------------------|
B|------------------------|
G|----------PLAY----------|
D|-----------------1-0--0-|
A|---6-5--5-------0-------|
E|-5----------------------|
Tap to rate this tab
# A B C D E F G H I J K L M N O P Q R S T U V W X Y Z