Song name
# A B C D E F G H I J K L M N O P Q R S T U V W X Y Z

Gorillaz - Fell Good Ink tab

---------------------------|
---------------------------|
---------------------------|
---------------------------|
--------3--2---0-0-3-2-----|
00--2--3--------------3--0-|

----------------------------------------------|
----------------------------------------------|
----------------------------------------------|
----------------------------------------------|
--------3--2---0-0-3-2------------------------|
00--2--3--------------3--0 /1/2/3/4/5/6/7/8/9-|

reapeat (5x)
Tap to rate this tab
# A B C D E F G H I J K L M N O P Q R S T U V W X Y Z