Song name
# A B C D E F G H I J K L M N O P Q R S T U V W X Y Z

Gorillaz - Feel Good Inc Acoustic tab

Tune-Age:)

C#-G#-C#-F#-A#-D#


VERSES:

-----------------------------------|
-----------------------------------|
-----------------------------------|
-----------------------------------|
---------2-1-----------------------|
-1-1-3-4------6-6-9-8-4-1- 1^13----|
ADD A LITTLE PERCUSSION FROM THE BODY OF YOUR GUITAR IN BETWEEN PAUSES or
YOU CAN PALM MUTE BTW PAUSES


CHORUS:THESE CHORDS PERTAIND TO STANDARD TUNING (THE GUITAR IS TUNED DOWN)
2 RYTHYMS I PLAY:    D,D,U,U,D,U OR D,U,(PLM MUTE),D,U,D,(PLM MUTE)


 D#      A#m        G#m         Bmb
--6--------6----------4----------1------|
--7--------6----------4----------2------|
--8--------6----------4----------3------|
--9--------6----------4----------3------|
--6--------8----------6----------1------|
--x--------8----------6----------x------|
Tap to rate this tab
 
# A B C D E F G H I J K L M N O P Q R S T U V W X Y Z