Gotan Project - Tango Square chords

Highlighted       Show chord diagrams
TANGO SQUARE - Gotan Project


Capo: 1st Fret/Frette/Traste

Riff 1:
          Emadd9
e|--------2--2--------2--2----|
B|--------0--0--------0--0----|
G|--------0--0--------0--0----|
D|--------2--2--------2--2----|
A|--------2--2--------2--2----|
E|--------0--0--------0--0----|

Riff 2:
          Amadd9
e|--------7--7--------7--7----|
B|--------5--5--------5--5----|
G|--------5--5--------5--5----|
D|--------7--7--------7--7----|
A|--------7--7--------7--7----|
E|--------5--5--------5--5----|

Riff 3:
          Am
e|--------5--5----5------------|
B|--------5--5----5------------|
G|--------5--5----5------------|
D|--------7--7----7------------|
A|--------7--7----7------------|
E|--------5--5----5------------|

Outro:
      Em     D      C     D  C  B            Em
e|----7---7--5---5--3-----5--3--2------------0----|
B|----8---8--7---7--5-----7--5--4------------0----|
G|----9---9--7---7--5-----7--5--4------------0----|
D|----9---9--7---7--5-----7--5--4------------2----|
A|----7---7--5---5--3-----5--3--2------------2----|
E|-------------------------------------------0----|

Structure/estructura:
Riff 1   x2
Riff 2   x1
Riff 1   x1
Riff 3   x1
Riff 1   x1

Riff 1   x2
Riff 2   x1
Riff 1   x1
Riff 3   x1
Riff 1   x1

Riff 1   x2
Riff 2   x1
Riff 1   x1
Riff 3   x1
Riff 1   x1

Riff 1   x2
Riff 2   x1
Riff 1   x1
Riff 3   x1
Outro    x1


Chords/accords/acordes:

Emadd9, Emadd9 | Emadd9, Emadd9 | 
Emadd9, Emadd9 | Emadd9, Emadd9 |
Amadd9, Amadd9 | Amadd9, Amadd9 | 
Emadd9, Emadd9 | Emadd9, Emadd9 |
Am, Am | - - - | Emadd9, Emadd9 |

Emadd9, Emadd9 | Emadd9, Emadd9 | 
Emadd9, Emadd9 | Emadd9, Emadd9 |
Amadd9, Amadd9 | Amadd9, Amadd9 | 
Emadd9, Emadd9 | Emadd9, Emadd9 |
Am, Am | - - - | Emadd9, Emadd9 |

Emadd9, Emadd9 | Emadd9, Emadd9 | 
Emadd9, Emadd9 | Emadd9, Emadd9 |
Amadd9, Amadd9 | Amadd9, Amadd9 | 
Emadd9, Emadd9 | Emadd9, Emadd9 |
Am, Am | - - - | Emadd9, Emadd9 |

Emadd9, Emadd9 | Emadd9, Emadd9 | 
Emadd9, Emadd9 | Emadd9, Emadd9 |
Amadd9, Amadd9 | Amadd9, Amadd9 | 
Emadd9, Emadd9 | Emadd9, Emadd9 |
Am, Am | - - - | Em, Em, D, D | 
C,    D, C |B - - | Em |
Tap to rate this tab
 
# A B C D E F G H I J K L M N O P Q R S T U V W X Y Z