Song name
# A B C D E F G H I J K L M N O P Q R S T U V W X Y Z

Gotthard - Mighty Quinn tab

 Hello Everyone. This is my 4rth tab and I'm only 13. This is a great cover version of 
Quinn. Please leave a comment and rate.

tabbed by jerijimi

 --------------------------------------------------------------------------|
 --------------------------------------------------------------------------|
 -----------2-----------2h3h2--0h2h0---------------------------------------|
 --2--------2---2------------------------2---------------------------------|
 --2--------0---2----------------------------------------------------------|
 --0-----0------0----------------------------------------------------------|


 ---------------------------------------------------------------------------|
 ---------------------------------------------------------------------------|
 --------2------------------------------------------------------------------|
 --0-----2-----2------------------------------------------------------------|
 --2-----0-----2------------------------------------------------------------|
 --2---0-------0---0h3h0h5h0h3h0--------------------------------------------|
Tap to rate this tab
 
# A B C D E F G H I J K L M N O P Q R S T U V W X Y Z