Song name
# A B C D E F G H I J K L M N O P Q R S T U V W X Y Z

Govt Mule - Mr Big tab

Gov't Mule
Mr. Big
Standard Tuning
In the Key of E

Verse
e|---------3-------------------3-3--------|
B|---------3-------------------3-3--------|
G|----------------------------------------|
D|----------------------------------------|
A|-0h2-----------------0h2----------------|
E|-----0-------------------0--------------|


Chorus
e|-0----|-----------------------------------|
B|-0----|-----------------------------------|
G|-1----|-4----4-2-2------------------------|
D|-2----|-4----4-2-2----2--4--5-2-4---2~----|
A|-2----|-2----2-0-0--0---0--0--------------|
E|-0----|----------------------------0------|

e|-0----|--------------------------------3--|
B|-0----|--------------------------------3--|
G|-1----|-4----4-2-2------------------------|
D|-2----|-4----4-2-2----2--4--5-2-4---------|
A|-2----|-2----2-0-0--0---0--0--------------|
E|-0----|----------------------------0------|

This is just the basics.  There are many fills and solos that are not tabbed.  If anyone 
the lyrics or solos email them to me.
Tap to rate this tab
# A B C D E F G H I J K L M N O P Q R S T U V W X Y Z