Song name
# A B C D E F G H I J K L M N O P Q R S T U V W X Y Z

Govt Mule - 30 Days In The Hole tab

Song: 30 Days In The Hole
Artist: Gov't Mule



Intro:
e|----------------------------------|
B|----------------------------------|
G|----------------------------------|
D|-5/7-7-7\----5b-5-5---3sb---------|
A|-3/5-5-5\--5--------5----5-0------|
E----------------------------------|


Main Riff:
e|----------------------------------|
B|----------------------------------|
G|-5h7~-7\--------------------------|
D|-------------5b-5-5---3~----------|
A|-----------5--------5-------------|
E|----------------------------------|


Into Chorus:
e|----------------------------------|
B|----------------------------------|
G|-5-5-5-5-x-4~---------------------|
D|-5-5-5-5-x-5~---------------------|
A|-3-3-3-3-x-5~---------------------|
E|---------x-3~---------------------|

Key:
b  =  bend
sb =  slight bend
h  =  hammer on
~  =  vibrato
X  =  mute
Tap to rate this tab
# A B C D E F G H I J K L M N O P Q R S T U V W X Y Z