Guitaretab - guitar tabs
Song name
# A B C D E F G H I J K L M N O P Q R S T U V W X Y Z

Graham Davey - Anji tab

This is an awesome song and its great to practice ur finger picking
Tune your guitar down a whole step
[ Tab from: http://www.guitaretab.com/g/graham-davey/7178.html ]
|       |       |       |        |       |       |       |        
|--------------------------------|--------------------------------|
|--------------------------------|--------------------------------|
|--------------------------------|--------------------------------|
|--------------------------------|--------------------------------|
|0-------0-----------------------|--------------------------------|
|----------------3-------3-------|1-------1-------0-------0-------|
 
 |       |       |       |        |       |       |       |        
|--------------------------------|--------------------------------|
|--------------------------------|--------------------------------|
|----2-------2-------2-------2---|----2-------2-------2-------2---|
|--------------------------------|--------------------------------|
|0-------0-----------------------|--------------------------------|
|----------------3-------3-------|1-------1-------0-------0-------|
 
 |       |       |       |        |       |       |       |        
|--------------------------------|--------------------------------|
|--------1---------------0-------|--------1-------0---------------|
|----2-------2-------2-------2---|----2-------2---------------2---|
|--------------------------------|--------------------------------|
|0-------0-----------------------|--------------------------------|
|----------------3-------3-------|1-------1-------0-------0-------|
 
 |       |       |       |        |       |       |       |        
|--------------------------------|--------------------------------|
|--------1---------------0-------|--------1-------0---------------|
|----2-------2-------2-------2---|----2-------2---------------2---|
|--------------------------------|--------------------------------|
|0-------0-----------------------|--------------------------------|
|----------------3-------3-------|1-------1-------0-------0-------|
 
 |       |       |       |        |       |       |       |        
|--------------------------------|--------------------------------|
|--------1h0-----0---------------|1h0-----1p0---------0-------0---|
|----2-------2---------------2---|----2-------2-------2-----------|
|--------------------------------|--------------------------------|
|0-------0-----------------------|--------------------------------|
|----------------3-------3-------|1-------1-------0-------0-------|
 
 |       |       |       |        |       |       |       |        
|--------------------------------|--------------------------------|
|--------1p0-----0---------------|1p0-----1p0---------0-------0---|
|----2-------2---------------2---|----2-------2-------2-----------|
|--------------------------------|--------------------------------|
|0-------0-----------------------|--------------------------------|
|----------------3-------ud3-------|1-------1-------0-------0-------|
 
 |       |       |       |        |       |       |       |        
|--------------------0-----------|----0---------------------------|
|--------1p0-----0---------------|0h1-----0-------0-------0-------|
|----2-------2---------------2---|------------2-------2-------2---| 
|--------------------------------|--------------------------------|
|0-------0-----------------------|--------------------------------|
|----------------3-------3-------|1-------1-------0-------0-------|
 
 |       |       |       |        |       |       |       |        
|--------------------0-----------|----0---------------------------|
|--------1p0-----0---------------|0h1-----0-------0---------------|
|----2-------2---------------2---|------------2-------------------|
|--------------------------------|--------------------------------|
|0-------0-----------------------|--------------------------------|
|----------------3-------3-------|1-------1-------0-------0-------|
 
 |       |       |       |        |       |       |       |        
|--------------------------------|--------------------------------|
|----1-------1-------0-------0---|----1-------1-------0-------0---|
|--2-------2-------2-------2-----|--2-------2---------2-----------|
|--------------------------------|--------------------------------|
|0-------0-----------------------|--------------------------------|
|----------------3-------3-------|1-------1-------0-------0-------|
 
 |       |       |       |        |       |       |       |        
|--------------------------------|--------------------------------|
|----1-------1-------0-------0---|----1-------1-------0-------0---|
|--2-------2-------2-------2-----|--2---------2-------2-----------|
|--------------------------------|--------------------------------|
|0-------0-----------------------|--------------------------------|
|----------------3-------3-------|1-------1-------0-------0-------|
 
 |       |       |       |        |       |       |       |        
|--------------------0-----------|----0---------------------------|
|--------1p0-----0---------------|0h1-----0-------0-------0-------|
|----2-------2---------------2---|------------2-------2-------2---|
|--------------------------------|--------------------------------|
|0-------0-----------------------|--------------------------------|
|----------------3-------3-------|1-------1-------0-------0-------|
 
 |       |       |       |        |       |       |       |        
|--------------------0-----------|----0---------------------------|
|--------1p0-----0---------------|0h1-----0-------0---------------|
|----2-------2---------------2---|------------2-------------------|
|--------------------------------|--------------------------------|
|0-------0-----------------------|--------------------------------|
|----------------3-------3-------|1-------1-------0-------0-------|
 
 |       |       |       |        |       |       |       |        
|--------------------0-----------|----0---------------------------|
|1p0-----1p0-----0---------------|0-------0-------0-------0-------|
|----2-------2---------------2---|------------2-------2-------2---|
|--------------------------------|--------------------------------|
|0-------0-----------------------|--------------------------------|
|----------------3-------3-------|1-------1-------0-------0-------|
 
 |       |       |       |        |       |       |       |        
|--------------------0-----------|----0---------------------------|
|--------1p0-----0---------------|0-------0-------0---------------|
|----2-------2---------------2---|------------2-------------------|
|--------------------------------|--------------------------------|
|0-------0-----------------------|--------------------------------|
|----------------3-------3-------|1-------1-------0-------0-------|
 
 |       |       |       |        |       |       |       |        
|--------------------------------|--------------------------------|
|----1-------1-------0-------0---|----1-------1-------0-------0---|
|----2-------2-------2-------2---|----2-------2-------2-------2---|
|--------------------------------|--------------------------------|
|0-------0-----------------------|--------------------------------|
|----------------3-------3-------|1-------1-------0-------0-------|
 
 |       |       |       |        |       |       |       |        
|--------------------------------|--------------------------------|
|----1---1---1-------0---0---0---|----1-------1---0---------------|
|----2---2---2-------2---2---2---|----2-------2---2---------------|
|--------------------------------|--------------------------------|
|0-------0-----------------------|--------------------------------|
|----------------3-------3-------|1-------1-------0-------0-------|
 
 |       |       |       |        |       |       |       |        
|------5-7---5---------3-5---3---|------1-3---1---0---0---0---0---|
|----5---------------3-----------|----1-----------0---0---0---0---|
|--5---------------4-------------|--2-------------1---1---1---1---|
|--------7---------------5-------|--------3-----------------------|
|--------------------------------|--------------------------------|
|5---------------3---------------|1---------------0-------0-------|
 
 |       |       |       |        |       |       |       |        
|------5-7---5---------3-5---3---|------1-3---1---0---0---0---0---|
|----5---------------3-----------|----1-----------0---0---0---0---|
|--5---------------4-------------|--2-------------1---1---1---1---|
|--------7---------------5-------|--------3-----------------------|
|--------------------------------|--------------------------------|
|5---------------3---------------|1---------------0-------0-------|
 
 |       |       |       |        |       |       |       |        
|--------7p5-------------5p3-----|--------3p1-----0-------0-------|
|----5-------5-------3-------3---|----1-------1-------0-------0---|
|--------------------------------|--------------------------------|
|--------7---------------5-------|--------3-----------------------|
|--------------------------------|--------------------------------|
|5---------------3---------------|1---------------0-------0-------|
 
 |       |       |       |        |       |       |       |        
|--------7p5-------------5p3-----|--------3p1-----0-------0-------|
|----5-------5-------3-------3---|----1-------1-------0-------0---|
|--------------------------------|--------------------------------|
|--------7---------------5-------|--------3-----------------------|
|--------------------------------|--------------------------------|
|5---------------3---------------|1---------------0-------0-------|
 
 |       |       |       |        |       |       |       |        
|--------------------0-----------|----0---------------------------|
|1p0-----1p0-----0---------------|0-------0-------0---------------|
|----2-------2---------------2---|------------2-------------------|
|--------------------------------|--------------------------------|
|0-------0-----------------------|--------------------------------|
|----------------3-------3-------|1-------1-------0-------0-------|
 
 |       |       |       |        |       |       |       |        
|--------------------0-----------|----0---------------------------|
|--------1p0-----0---------------|0-------0-------0---------------|
|----2-------2---------------2---|------------2-------------------|
|--------------------------------|--------------------------------|
|0-------0-----------------------|--------------------------------|
|----------------3-------3-------|1-------1-------0-------0-------|
 
 |       |       |       |        |       |       |       |        
|--------------------0-----------|--------------------------------|
|--------1p0-----0---------------|0h1p0---0h1p0-------0-------0---|
|----2-------2---------------2---|------2-------2-----2-------2---|
|--------------------------------|--------------------------------|
|0-------0-----------------------|--------------------------------|
|----------------3-------3-------|1-------1-------0-------0-------|
 
 |       |       |       |        |       |       |       |        
|--------------------0-----------|--------------------------------|
|--------1p0-----0---------------|0h1p0---0h1p0-------0-------0---|
|----2-------2---------------2---|------2-------2-----2-------2---|
|--------------------------------|--------------------------------|
|0-------0-----------------------|--------------------------------|
|----------------3-------3-------|1-------1-------0-------0-------|
 
 |       |       |       |        |       |       |       |        
|--------------------------------|--------------------------------|
|----1---1---1-------0---0---0---|----1---1---1---0---0---0---0---|
|----2---2---2-------2---2---2---|----2---2---2---2---2---2---2---|
|--------------------------------|--------------------------------|
|0-------0-----------------------|--------------------------------|
|----------------3-------3-------|1-------1-------0-------0-------|
 
 |       |       |       |        |       |       |       |        
|--------------------------------|--------------------------------|
|----1---1---1-------0---0---0---|----1---1---1---0---0---0---0---|
|----2---2---2-------2---2---2---|----2---2---2---2---2---2---2---|
|--------------------------------|--------------------------------|
|0-------0-----------------------|--------------------------------|
|----------------3-------3-------|1-------1-------0-------0-------|
 
 |       |       |       |        |       |       |       |        
|--------------------------------|------------------------0-0-0---|
|--0-1---3-1-0-------------------|------------------------0-0-0---|
|----------------2-4-2---0-------|------------------------9-9-9---|
|--------------------------3-2---|0-----------------------9-9-9---|
|0-------------------------------|--3-2---0---------------7-7-7---|
|--------------------------------|----------3-1---0-------0-0-0---|
 
 |       |       |       |        |       |       |       |        
|0-0-0---0-0-0---0---------------|--------------------0-----------|
|0-0-0---0-0-0---0---------------|--------1p0-----0h3-----3p0-----|
|9-9-9---9-9-9---9---------------|----2-------2---------------0---|
|9-9-9---9-9-9---9---------------|--------------------------------|
|7-7-7---7-7-7---7---------------|0-------0-----------------------|
|0-0-0---0-0-0---0---------------|----------------3-------3-------|
 
 |       |       |       |        |       |       |       |        
|----------------------------0---|--------------------0-----------|
|1p0-----1p0---------0---1h3-----|--------1p0-----0h3-----3p0-----|
|----2-------2---1h2-------------|----2-------2---------------0---|
|--------------------------------|--------------------------------|
|--------------------------------|0-------0-----------------------|
|1-------1-------0-------0-------|----------------3-------3-------|
 
 |       |       |       |        |       |       |       |        
|------------------------0---0---|--------------------0-----------|
|1p0-----1p0-----0-------0---0---|--------1h0-----0p3-----3p0-----|
|----2-------2-----------1---1---|----2-------2---------------0---|
|------------------------2---2---|--------------------------------|
|------------------------2---2---|0-------0-----------------------|
|1-------1-------0---------------|----------------3-------3-------|
 
 |       |       |       |        |       |       |       |        
|----------------------------0---|--------------------0-----------|
|1p0-----1p0---------0---1p3-----|--------1p0-----0h3-----3h0-----|
|----2-------2---1p2-------------|----2-------2---------------0---|
|--------------------------------|--------------------------------|
|--------------------------------|0-------0-----------------------|
|1-------1-------0-------0-------|----------------3-------3-------|
 
 |       |       |       |        |       |       |       |        
|--------------------------------|--------------------------------|
|1p0-----1-----------------------|----1---1---1-------0---0---0---|
|----2-------0h--1-----------2---|----2---2---2-------2---2---2---|
|--------------------------------|--------------------------------|
|--------------------------------|0-------0-----------------------|
|1-------1---0-----------0-------|----------------3-------3-------|
 
 |       |       |       |        |       |       |       |        
|--------------------------------|--------------------------------|
|----1---1---1---0-----------0---|----1---1---1-------0---0---0---|
|----2---2---2---2-----------2---|----2---2---2-------2---2---2---|
|--------------------------------|--------------------------------|
|--------------------------------|0-------0-----------------------|
|1-------1-------0-------0-------|----------------3-------3-------|
 
 |       |       |       |        |       |       |       |        
|--------------------------------|--------------------------------|
|----1---1---1---0-----------0---|--------0p1p0---0---------------|
|----2---2---2---2-----------2---|----2---------2-------------2---|
|--------------------------------|--------------------------------|
|--------------------------------|0-------0-----------------------|
|1-------1-------0-------0-------|----------------3-------3-------|
 
 |       |       |       |        |       |       |       |        
|--------------------------------|--------------------------------|
|0p1p0---0p1p0-------0-------0---|--------0p1p0---0---------------|
|------2-------2-----2-------2---|----2---------2-------------2---|
|--------------------------------|--------------------------------|
|--------------------------------|0-------0-----------------------|
|1-------1-------0-------0-------|----------------3-------3-------|
 
 |       |       |       |        |       |       |       |        
|--------------------------------|--------------------0-----------|
|0p1p0---0p1p0-------0-------0---|--------0p1p0---0---------------|
|------2-------2-----2-------2---|----2---------2-------------2---|
|--------------------------------|--------------------------------|
|--------------------------------|0-------0-----------------------|
|1-------1-------0-------0-------|----------------3-------3-------|
 
 |       |       |       |        |       |       |       |        
|------------0-------------------|--------------------0-----------|
|0p1p0---0-----------0-----------|--------1p0-----0---------------|
|------2---------------------2---|----2-------2---------------2---|
|--------------------------------|--------------------------------|
|--------------------------------|0-------0-----------------------|
|1-------1-------0-------0-------|----------------3-------3-------|
 
 |       |       |       |        |       |       |       |        
|----0---------------------------|--------------------------------|
|0-------0-------0---------------|--------1---1-------0---0---0---|
|------------2-------------------|----2---2---2-------2---2---2---|
|--------------------------------|--------------------------------|
|--------------------------------|0-------0-----------------------|
|1-------1-------0-------0-------|----------------3-------3-------|
 
 |       |       |       |        |       |       |       |        
|--------------------------------|--------------------------------|
|----1---1---1---0---0---0---0---|----1---1---1-------0---0---0---|
|----2---2---2---2---2---2---2---|----2---2---2-------2---2---2---|
|--------------------------------|--------------------------------|
|--------------------------------|0-------0-----------------------|
|1-------1-------0-------0-------|----------------3-------3-------|
 
 |       |       |       |        |       |       |       |        
|--------------------------------|----0---0---0-------0---0---0---|
|----1---1---1---0---0---0---0---|----1---1---1-------0---0---0---|
|----2---2---2---2---2---2---2---|----2---2---2-------2---2---2---|
|--------------------------------|--------------------------------|
|--------------------------------|0-------0-----------------------|
|1-------1-------0-------0-------|----------------3-------3-------|
 
 |       |       |       |        |       |       |       |        
|----0---0---0---0---0---0---0---|----0-------0-------0-------0---|
|----1---1---1---0---0---0---0---|----1-------1-------0-------0---|
|----2---2---2---2---2---2---2---|----2-------2-------2-------2---|
|--------------------------------|--------------------------------|
|--------------------------------|0-------0-----------------------|
|1-------1-------0-------0-------|----------------3-------3-------|
 
 |       |       |       |        |       |       |       |        
|----0---0---0-------0-------0---|--0-----0---0-----0-----0---0---|
|----1---1---1-------0-------0---|--------------------------------|
|----2---2---2-------2-------2---|--------------------------------|
|--------------------------------|----------7---------------5-----|
|--------------------------------|----7---------------5-----------|
|1-------1-------0-------0-------|5---------------3---------------|
 
 |       |       |       |        |       |       |       |        
|--0-----0---0-----0-----0---0---|--0-----0---0-----0-----0---0---|
|--------------------------------|--------------------------------|
|--------------------------------|--------------------------------|
|----------3---------------2-----|----------7---------------5-----|
|----3---------------2-----------|----7---------------5-----------|
|1---------------0---------------|5---------------3---------------|
 
 |       |       |       |        |       |       |       |        
|--0-----0---0-----0-----0---0---|--------------------------------|
|--------------------------------|--0-1---3-1-0-------------------|
|--------------------------------|----------------2-4-2---0-------|
|----------3---------------2-----|--------------------------3-2---|
|----3---------------2-----------|0-------------------------------|
|1---------------0---------------|--------------------------------|
 
 |       |       |       |        |       |       |       |        
|------------------------0-0-0---|0-0-0---0-0-0---0---------------|
|------------------------0-0-0---|0-0-0---0-0-0---0---------------|
|------------------------9-9-9---|9-9-9---9-9-9---9---------------|
|0-----------------------9-9-9---|9-9-9---9-9-9---9---------------|
|--3-2---0---------------7-7-7---|7-7-7---7-7-7---7---------------|
|----------3-1---0-------0-0-0---|0-0-0---0-0-0---0---------------|
 
 |       |       |       |        |       |       |       |        
|--------------------0-----------|----0---------------------------|
|--------1p0-----0---------------|1-------1p0-----0-------0-------|
|----2-------2---------------2---|------------2-------2-------2---|
|--------------------------------|--------------------------------|
|0-------0-----------------------|--------------------------------|
|----------------3-------3-------|1-------1-------0-------0-------|
 
 |       |       |       |        |       |       |       |        
|--------------------0-----------|----0---------------------------|
|--------1p0-----0---------------|0-------0-------0---------------|
|----2-------2---------------2---|------------2---------------2---|
|--------------------------------|--------------------------------|
|0-------0-----------------------|--------------------------------|
|----------------3-------3-------|1-------1-------0-------0-------|
 
 |       |       |       |        |       |       |       |        
|--------------------------------|--------------------------------|
|----1-------1-------0-------0---|----1-------1-------0-------0---|
|--2-------2-------2-------2-----|--2-------2---------2-----------|
|--------------------------------|--------------------------------|
|0-------0-----------------------|--------------------------------|
|----------------3-------3-------|1-------1-------0-------0-------|
 
 |       |       |       |        |       |       |       |        
|--------------------------------|--------------------------------|
|----1-------1-------0-------0---|----1-------1-------0-------0---|
|--2-------2-------2-------2-----|--2---------2-------2-----------|
|--------------------------------|--------------------------------|
|0-------0-----------------------|--------------------------------|
|----------------3-------3-------|1-------1-------0-------0-------|
 
 |       |       |       |        |       |       |       |        
|--------------------------------|--------------------------------|
|--------1---------------0-------|--------1-------0-------0-------|
|----2-------2-------2-------2---|----2-------2-------2-------2---|
|--------------------------------|--------------------------------|
|0-------0-----------------------|--------------------------------|
|----------------3-------3-------|1-------1-------0-------0-------|
 
 |       |       |       |        |       |       |       |        
|--------------------------------|--------------------------------|
|--------1---------------0-------|--------1-------0-------0-------|
|----2-------2-------2-------2---|----2-------2-------2-------2---|
|--------------------------------|--------------------------------|
|0-------0-----------------------|--------------------------------|
|----------------3-------3-------|1-------1-------0-------0-------|
 
 |       |       |       |        |       |       |       |        
|--------------------------------|--------------------------------|
|----1---1---1-------0---0---0---|----1---1---1---0---0---0---0---|
|----2---2---2-------2---2---2---|----2---2---2---2---2---2---2---|
|--------------------------------|--------------------------------|
|0-------0-----------------------|--------------------------------|
|----------------3-------3-------|1-------1-------0-------0-------|
 
 |       |       |       |        |       |       |       |        
|--------------------------------|--------------------------------|
|----1---1---1-------0---0---0---|----1---1---1---0---0---0---0---|
|----2---2---2-------2---2---2---|----2---2---2---2---2---2---2---|
|--------------------------------|--------------------------------|
|0-------0-----------------------|--------------------------------|
|----------------3-------3-------|1-------1-------0-------0-------|
 
 |       |       |       |        |       |       |       |        
|----0---0---0-------0---0---0---|----0---0---0---0---0---0---0---|
|----1---1---1-------0---0---0---|----1---1---1---0---0---0---0---|
|----2---2---2-------2---2---2---|----2---2---2---2---2---2---2---|
|--------------------------------|--------------------------------|
|0-------0-----------------------|--------------------------------|
|----------------3-------3-------|1-------1-------0-------0-------|
 
 |       |       |       |        |       |       |       |        
|----0---0---0-------0---0---0---|----0---0---0---0---------------|
|----1---1---1-------0---0---0---|----1---1---1---0---------------|
|----2---2---2-------2---2---2---|----2---2---2---2---------------|
|--------------------------------|--------------------------------|
|0-------0-----------------------|--------------------------------|
|----------------3-------3-------|1-------1-------0---------------|

I got this from Sal Bonavita on Youtube btw 
Have Fun 
 
Anji chords by Graham Davey