Song name
# A B C D E F G H I J K L M N O P Q R S T U V W X Y Z

Graham Nash - Chicago tab

Heyho,
Dies ist ein richtig cooler song von clueso aus dem Album "Weit Weg".
Ich bin sicher, dass es nicht 100% richtig ist - vor allem zum Ende hin (da ging mir die 
aus), aber es hört sich zumindest ganz cool an.
Verbesserungsvorschläge und Kritiken sind gerne erwünscht ;)
also viel spaß damit
Osen

"Intro:"
  Dmaj7
|---5---|
|---7---|
|---6---|
|---7---|
|---5---|
|---5---| 1x


Verse 1:
"Sie ist immer da wo was los ist (...) Pflegt sie zumindest den Kontakt"

    G   =   D  = = =
|--/7---7--\2--2-2-2---|
|--/8---8--\3--3-3-3---|
|--/7---7--\2--2-2-2---|
|--(0)-(0)-(0)(0(0)0)--|
|----------------------|
|----------------------| 8x


Chorus 1:
"Und sie träumt von Chicago (...) niemand ihren Namen nennt"

  Em  =  =  = =F#m  G  =  =  = = A  Bm =  =  = = =  A  =  =  = = =
|--0--0--0--0-0/2--/3--3--3--3-3/5--7--7--7--7-7-7--5--5--5--5-5-5--|
|--0--0--0--0-0/2--/3--3--3--3-3/5--7--7--7--7-7-7--5--5--5--5-5-5--|
|--0—-0--0--0-0/2--/4--4--4--4-4/6--7--7--7--7-7-7--6--6--6--6-6-6--|
|--2--2--2--2-2/4--/5--5--5--5-5/7--9--9--9--9-9-9--7--7--7--7-7-7--|
|--2--2--2--2-2/4--/5--5--5--5-5/7--9--9--9--9-9-9--7--7--7--7-7-7--|
|--0--0--0--0-0/2--/3--3--3--3-3/5--7--7--7--7-7-7--5--5--5--5-5-5--| 2x


Verse 2:
"Mit ihrem sonnigen Traum vor Augen (...) Nimmt sie dich mit für eine Nacht"

    G   =   D  = = =
|--/7---7--\2--2-2-2---|
|--/8---8--\3--3-3-3---|
|--/7---7--\2--2-2-2---|
|--(0)-(0)-(0)(0(0)0)--|
|----------------------|
|----------------------| 8x


Chorus 2:
"Sie nimmt dich mit nach Chicago (...) niemand deinen Namen nennt"

  Em  =  =  = =F#m  G  =  =  = = A  Bm =  =  = = =  A  =  =  = = =
|--0--0--0--0-0/2--/3--3--3--3-3/5--7--7--7--7-7-7--5--5--5--5-5-5--|
|--0--0--0--0-0/2--/3--3--3--3-3/5--7--7--7--7-7-7--5--5--5--5-5-5--|
|--0—-0--0--0-0/2--/4--4--4--4-4/6--7--7--7--7-7-7--6--6--6--6-6-6--|
|--2--2--2--2-2/4--/5--5--5--5-5/7--9--9--9--9-9-9--7--7--7--7-7-7--|
|--2--2--2--2-2/4--/5--5--5--5-5/7--9--9--9--9-9-9--7--7--7--7-7-7--|
|--0--0--0--0-0/2--/3--3--3--3-3/5--7--7--7--7-7-7--5--5--5--5-5-5--| 2x


Interlude:
"Doch wenn man ihr erzählt (...) So muss sie schnell zurück"

  F7   =    =  =    =    =   =   F    =    =  C  =  =
|-8----8----8--8----8----8----8--8----8----8--8--8--8--|
|--11---11---11-11---11---11---11-10---10---10-8--8--8-|
|----10---10------10---10---10------10---10-----9--9---|
|------------------------------------------------------|
|------------------------------------------------------|
|------------------------------------------------------| 1x

  F7   =    =  =    =    =   =   F    =    =   C
|-8----8----8--8----8----8----8--8----8----8---8-------|
|--11---11---11-11---11---11---11-10---10---10-8-------|
|----10---10------10---10---10------10---10----9-------|
|------------------------------------------------------|
|------------------------------------------------------|
|------------------------------------------------------| 1x


Verse 3:
"Manchmal trifft sie sich mit ein paar Leuten (...) ist alles was sie hinterlassen hat"

    G   =   D  = = =
|---3---3---2--2-2-2---|
|---3---3---3--3-3-3---|
|---0---0---2--2-2-2---|
|---0---0---0--0-0-0---|
|----------------------|
|----------------------| 8x


Chorus 3:
"Ich komm nie mehr, ich bin in Chicago (...) niemand meinen Namen nennt"

  Em  =  =  = =F#m  G  =  =  = = A  Bm =  =  = = =  A  =  =  = = =
|--0--0--0--0-0/2--/3--3--3--3-3/5--7--7--7--7-7-7--5--5--5--5-5-5--|
|--0--0--0--0-0/2--/3--3--3--3-3/5--7--7--7--7-7-7--5--5--5--5-5-5--|
|--0—-0--0--0-0/2--/4--4--4--4-4/6--7--7--7--7-7-7--6--6--6--6-6-6--|
|--2--2--2--2-2/4--/5--5--5--5-5/7--9--9--9--9-9-9--7--7--7--7-7-7--|
|--2--2--2--2-2/4--/5--5--5--5-5/7--9--9--9--9-9-9--7--7--7--7-7-7--|
|--0--0--0--0-0/2--/3--3--3--3-3/5--7--7--7--7-7-7--5--5--5--5-5-5--| 2x


Outro:
"Chicago ... Wo mich keiner kennt ... Ich komm nie mehr ... In Chicagoooooo ... Ich komm 
mehr"

  D7 =  = =  =  = D  =  = A  =  =
|-5--5--5-5--5--5-5--5--5-5--5--5------|
|--8--8--8-8--8--8-7--7--7-5--5--5-----|
|---7--7----7--7----7--7----6--6-------|
|--------------------------------------|
|--------------------------------------|
|--------------------------------------| 2x
Tap to rate this tab
# A B C D E F G H I J K L M N O P Q R S T U V W X Y Z