Song name
# A B C D E F G H I J K L M N O P Q R S T U V W X Y Z

Graham Wardrop - Baroque Again tab

#----------------------------------PLEASE NOTE---------------------------------#
#This file is the author's own work and represents their interpretation of the #
#song. You may only use this file for private study, scholarship, or research. #
#------------------------------------------------------------------------------##

     Baroque Again  - Graham Wardrop
     ~~~~~~~~~~~~~
     Transcribed by John Kean (keanj@agresearch.cri.nz).

     4/4 time, allegretto.
     Standard tuning.

     / = slide up
     \ = slide down
     ~ = arpeggio


     PART I:

     ||---0--------0--3--------3--|--0--------0--------------|
     ||---------1-----------0-----|--------3-----1-----1-----|
     ||*-----0-----------0--------|-----2-----------0-----0--|
     ||*--------------------------|--------------------------|
     ||---3-----------2-----------|--0-----------------------|
     ||---------------------------|--------------3-----------|



     |--------------0--1--3-/5--|--7--------8--8-----------|
     |-----0--1-/3--------------|--------------------------|
     |--2-----------------------|--------------------------|
     |--------------------------|--------------------------|
     |--------------------------|--------------------------|
     |--1-----------------------|--0-----------5-----------|



     |--7-----------5-----------|--3-----------------0-----|
     |-----6-----------6--------|-----6--5--3--------------|
     |--------5-----------7-----|--------------5-----------|
     |-----------7-----------7--|--------------------------|
     |--5-----------------------|--3-----------0-----------|
     |--------------5-----------|--------------------------|

                                 ............................
                                  1.                        |
     |--------------------------|-----0-----0---------------||
     |-----0--1--3--1-----0-----|--------1-----------0------||
     |--2-----------1-----1-----|--2-----------2-----------*||
     |--------------------------|--------------------------*||
     |--------------------------|--0-----------------2------||
     |--1-----------0-----0-----|---------------------------||

      ...........................
       2.
     |-----0-----0--------------||---5--------5-/7-----5-----|
     |--------1-----------------||---------0--------0-----0--|
     |--2-----------2-----------||*-----2--------------------|
     |--------------------------||*--3-----------0-----------|
     |--0-----------------------||---------------------------|
     |--------------------------||---------------------------|



     |--3--------3--------------|--1--------1-/3-----1-----|
     |--------1-----1-----------|--------0--------0-----0--|
     |-----0-----------0-----0--|-----2--------------------|
     |--2-----------------2-----|--0-----------------------|
     |--------------------------|--------------------------|
     |--------------------------|--------------------------|

      ............................ ..........................
       1.                        |  2.
     |--0-----1-----3------------||--0-----------------------|
     |--1-----3-----1------------||--1-----3-----1-----------|
     |-----------------0-----0--*||-----0-----0-----2-----2--|
     |--------0-----2-----2-----*||--------------------2-----|
     |--3------------------------||--3-----------0-----------|
     |---------------------------||--------------------------|



     |--------------------------|--------------------------|
     |--0-----0--1--3-----5-----|--6-----8-----10----------|
     |-----0-----------0-----0--|-----0-----0--------------|
     |--------------------------|--------------------------|
     |-----------0--2-----3-----|--5-----7-----8-----------|
     |--3-----------------------|--------------------------|



     |--0--------1--3-----5-----|--7-----8-----10----------|
     |-----1--------------------|--------------------------|
     |--------0-----------------|--------------------------|
     |-----------0--2-----3-----|--5-----7-----9-----------|
     |--3-----------------------|--------------------------|
     |--------------------------|--------------------------|



     |--12-------10-8-----7-----|--8-----7-----5-----3-----|
     |--------------------------|--------------------------|
     |--------------------------|--------------------------|
     |--10-------9--7-----5-----|--7-----5-----3-----2-----|
     |--------------------------|--------------------------|
     |--------------------------|--------------------------|



     |--------------------------|-----0-----0--------------|
     |-----0--1--3--1-----0-----|--------1-----------0-----|
     |--2-----------1-----1-----|--2-----------2-----------|
     |--------------------------|--------------------------|
     |--------------------------|--0-----------------2-----|
     |--1-----------0-----0-----|--------------------------|



     |--0--------0--3--------3--|--0--------0--------------|
     |--------1-----------0-----|--------3-----1-----1-----|
     |-----0-----------0--------|-----2-----------0-----0--|
     |--------------------------|--------------------------|
     |--3-----------2-----------|--0-----------------------|
     |--------------------------|--------------3-----------|



     |--------------0--1--3--5--|--7--------8--8-----------|
     |-----0--1--3--------------|--------------------------|
     |--2-----------------------|--------------------------|
     |--------------------------|--------------------------|
     |--------------------------|--------------------------|
     |--1-----------------------|--0-----------5-----------|



     |--7-----------5-----------|--3-----------------0-----|
     |-----6-----------6--------|-----6--5--3--------------|
     |--------5-----------7-----|--------------5-----------|
     |-----------7-----------7--|--------------------------|
     |--5-----------------------|--3-----------0-----------|
     |--------------5-----------|--------------------------|


                                                     ~
     |--------------------------|-----0-----0--------2-----||
     |-----0--1--3--1-----0-----|--------1-----------3-----||
     |--2-----------1-----1-----|--2-----------2-----2-----||
     |--------------------------|--------------------0-----||
     |--------------------------|--0-----------------0-----||
     |--1-----------0-----0-----|--------------------2-----||


     PART II:

     ||---------------------------|--0-----------------------|
     ||---0--------1--3-----0-----|--------3-----1-----0-----|
     ||*--------0--------0-----0--|-----0-----0-----0-----0--|
     ||*-----0--------------------|--------------------------|
     ||------------0--2-----------|--3-----2-----0-----------|
     ||---3-----------------3-----|--------------------3-----|



     |--------------------------|--------------------------|
     |-----------0--1-----------|--3-----1-----0-----------|
     |--2-----------------2-----|--------------------2-----|
     |-----0-----------------0--|-----0-----0-----0-----0--|
     |--------0-----0-----------|--2-----0-----------------|
     |--2--------3--------2-----|--------------3-----2-----|



     |--------------------------|--------------------------|
     |--------------0-----------|--1-----0-----------------|
     |--0--------2--------2-----|--------------2-----0-----|
     |--------2--------------0--|--------------------------|
     |-----2--------------------|--0-----------------------|
     |--0--------2--3-----2-----|--------3-----2-----0-----|



     |--------------------------|--------------------------||
     |--3-----1-----0-----------|-----0--3--0--------------||
     |--------------------2-----|--0-----------0----------*||
     |--------------------------|-------------------------*||
     |--2-----------------3-----|--2-----------------------||
     |--------2-----3-----------|--------------------------||


     |--0--------3--2-----3-----|-----3--2--3--------------|
     |--------1-----------------|--3-----------3--0--------|
     |-----0--------------------|--------------------2--0--|
     |--------------------------|--------------------------|
     |--3-----------0-----------|--2-----------------------|
     |--------------------------|--------------3-----------|



     |-----------0--------------|--------------------------|
     |--1-----------3-----1-----|--0-----3-----1-----0-----|
     |-----2--------------------|-----0-----0-----0-----0--|
     |--------2-----0--------0--|--------------------------|
     |--0-----------------------|--------2-----0-----------|
     |--------------------2-----|--3-----------------3-----|


     |--0--------3--2-----3-----|-----3--2--3--------------|
     |--------1-----------------|--3-----------3--0--------|
     |-----0--------------------|--------------------2--0--|
     |--------------------------|--------------------------|
     |--3-----------0-----------|--2-----------------------|
     |--------------------------|--------------3-----------|


     |--------------------------|--2--------3--5-----10----|
     |--2--------3--5/----10----|-----3--------------------|
     |-----2--------------------|--------2-----------------|
     |--------2-----------------|--0--------2--4-----7-----|
     |--0--------2--4-----------|--------------------------|
     |--------------------------|--------------------------|



     |-----8--10-7--8-----7-----|--------------------------|
     |-----------------10----8--|--10-7--8--10-8--7--------|
     |--------------------------|--------------------9--7\-|
     |--------------------------|--------------------------|
     |--------------------------|--------------------------|
     |--------------------------|--------------------------|



     |--------------------------|--------------------------|
     |--------------------------|--------------------------|
     |-----5--7--4--5-----4-----|--------------------------|
     |-----------------7-----5--|--7--4--5--7--5--4--------|
     |--------------------------|--------------------7--5\-|
     |--------------------------|--------------------------|



     |--------------------------|--------------------------|
     |--------------------------|--------------------------|
     |--------------------------|--------------------0--3--|
     |--------------------------|-----------0--2--4--------|
     |-----3--5--2--3--0--2-----|--0--2--3-----------------|
     |-----------------------3--|--------------------------|



     |--------------------------|--0-----------------------|
     |--0--------1--3-----0-----|--------3-----1-----0-----|
     |--------0--------0-----0--|-----0-----0-----0-----0--|
     |-----0--------------------|--------------------------|
     |-----------0--2-----------|--3-----2-----0-----------|
     |--3-----------------3-----|--------------------3-----|



     |--------------------------|--------------------------|
     |-----------0--1-----------|--3-----1-----0-----------|
     |--2-----------------2-----|--------------------2-----|
     |-----0-----------------0--|-----0-----0-----0-----0--|
     |--------0-----0-----------|--2-----0-----------------|
     |--2--------3--------2-----|--------------3-----2-----|



     |--------------------------|--------------------------|
     |--------------0-----------|--1-----0-----------------|
     |--0--------2--------2-----|--------------2-----0-----|
     |--------2--------------0--|--------------------------|
     |-----2--------------------|--0-----------------------|
     |--0--------2--3-----2-----|--------3-----2-----0-----|


                                               ~
     |--------------------------|--------------3-----------||
     |--3-----1-----0-----------|--------------1-----------||
     |--------------------2-----|--0-----------0--------0--||
     |--------------------------|--------------0--2--4-----||
     |--2-----------------3-----|--2--0--2--3--------------||
     |--------2-----3-----------|--------------------------||


     PART I again:
         ~
     ||--5--------5-/7-----5-----|--3-----------------------|
     ||--0-----------------------|--1-----------1-----------|
     ||--2-----------------------|--0-----------2-----------|
     ||--3-----------0-----------|--2-----------------------|
     ||--------------------------|--------------0-----------|
     ||--------------------------|--------------------------|



     |--1-----------3-----1-----|--0-----1-----3-----------|
     |--0--0--------0-----0-----|--1-----3-----1-----------|
     |--2-----2-----0--------0--|-----0-----2-----0-----0--|
     |--0--------0--------------|--------2-----2-----2-----|
     |--------------2-----------|--3-----------------------|
     |--------------------3-----|--------------------------|


     |--5--------5-/7-----5-----|--3-----------------------|
     |--------0-----------------|--1-----------1-----------|
     |-----2--------------------|--0-----------2-----------|
     |--3-----------0-----------|--2-----------------------|
     |--------------------------|--------------0-----------|
     |--------------------------|--------------------------|



     |--1-----------3-----1-----|--0-----------------------|
     |--0--0-----0--------0-----|--1-----3-----1-----------|
     |--2-----2--------0-----0--|-----0-----0-----2-----2--|
     |--0-----------------------|--------------------2-----|
     |--------------2-----------|--3-----------0-----------|
     |--------------------------|--------------------------|



     |--------------------0-----|--1-----3-----5-----------|
     |--0-----0--1--3-----------|--------------------------|
     |-----0-----------0-----0--|--------------------------|
     |--------------------------|--0-----2-----3-----------|
     |-----------0--2-----3-----|--------------------0--2--|
     |--3-----------------------|-----------------3--------|



     |--0--------1--3-----5-----|--7-----8-----10----------|
     |-----1--------------------|--------------------------|
     |--------0-----------------|--------------------------|
     |-----------0--2-----3-----|--5-----7-----9--------9--|
     |--3-----------------------|-----------------10-12----|
     |--------------------------|--------------------------|



     |--12-------10-8-----7-----|--8-----7-----5-----3-----|
     |--------------------------|--------------------------|
     |--------------------------|--------------------------|
     |--10-------9--7-----5-----|--7-----5-----3-----2-----|
     |--------------------------|--------------------------|
     |--------------------------|--------------------------|



     |--------------------------|-----0-----0--------------|
     |-----0--1--3--1-----0-----|--------1-----------0-----|
     |--2-----------1-----1-----|--2-----------2-----------|
     |--------------------------|--------------------------|
     |--------------------------|--0-----------------2-----|
     |--1-----------0-----0-----|--------------------------|


     ||---0--------0--3--------3--|--0--------0--------------|
     ||---------1-----------0-----|--------3-----1-----1-----|
     ||*-----0-----------0--------|-----2-----------0-----0--|
     ||*--------------------------|--------------------------|
     ||---3-----------2-----------|--0-----------------------|
     ||---------------------------|--------------3-----------|



     |--------------0--1--3-/5--|--7--------8--8-----------|
     |-----0--1-/3--------------|--------------------------|
     |--2-----------------------|--------------------------|
     |--------------------------|--------------------------|
     |--------------------------|--------------------------|
     |--1-----------------------|--0-----------5-----------|



     |--7-----------5-----------|--3-----------------0-----|
     |-----6-----------6--------|-----6--5--3--------------|
     |--------5-----------7-----|--------------5-----------|
     |-----------7-----------7--|--------------------------|
     |--5-----------------------|--3-----------0-----------|
     |--------------5-----------|--------------------------|

                                 ............................
                                  1.                        |
     |--------------------------|-----0-----0---------------||
     |-----0--1--3--1-----0-----|--------1-----------0------||
     |--2-----------1-----1-----|--2-----------2-----------*||
     |--------------------------|--------------------------*||
     |--------------------------|--0-----------------2------||
     |--1-----------0-----0-----|---------------------------||

      ........................... CODA:
       2.
     |-----0-----0--------------|--7-----------5-----------|
     |--------1-----------------|-----6-----------6--------|
     |--2-----------2-----------|--------5-----------7-----|
     |--------------------------|-----------7-----------7--|
     |--0-----------------------|--5-----------------------|
     |--------------------------|--------------5-----------|


     |--3-----------------0-----|--------------------------|
     |-----6--5--3--------------|--------------------------|
     |--------------5-----------|----------Pause-----------|
     |--------------------------|----------1-bar-----------|
     |--3-----------0-----------|--------------------------|
     |--------------------------|--------------------------|


     |--------------------------|--------0-----5--------16-|
     |-----0--1--3--1-----0-----|--------0-----5-----------|
     |--2-----------1-----1-----|--2-----1-----5-----------|
     |--------------------------|--------------------------|
     |--------------------------|--0-----------------------|
     |--1-----------0-----0-----|--------0-----5-----------|

        ad.lib.
     |--17-13-15-12-13-10-12-8--|--10-7--8--5--7--4--5-----|
     |--------------------------|-----------------------9--|
     |--------------------------|--------------------------|
     |--------------------------|--------------------------|
     |--------------------------|--------------------------|
     |--------------------------|--------------------------|



     |--------------------------|--------------------------|
     |--10----------------------|--------------------------|
     |-----10-12-9--10-7--9--5--|--7--4--5--2--4--1--2-----|
     |--------------------------|-----------------------6--|
     |--------------------------|--------------------------|
     |--------------------------|--------------------------|


     |--------------------------|--------------------------|
     |--------------------------|--------------------------|
     |--------------------------|--------------------------|
     |--7-----------------------|--------------------------|
     |-----8--10-7--8--5--7--3--|--5--2--3--0--------------|
     |--------------------------|--------------0-----4-----|

        ~
     |--5-----------------------||
     |--5-----------------------||
     |--2-----------------------||  Fine.
     |--2-----------------------||
     |--0-----------------------||
     |--------------------------||
Tap to rate this tab
# A B C D E F G H I J K L M N O P Q R S T U V W X Y Z