Song name
# A B C D E F G H I J K L M N O P Q R S T U V W X Y Z

Grand Archives - Swan Matches tab

-------------------------------------------------------------------------------
                      SWAN MATCHES - Grand Archives
-------------------------------------------------------------------------------

Band: Grand Archives
Song: Swan Matches
Album: The Grand Archives (2008)

Tabbed by: Pascual Rambert (Chasco-Mousse, Argentina)
Tuning: Standard



A A A4 A
D D D D

I remember hours scraped away
hospital blue paint off the wall,
like it would take forever.

Lighting those swan matches to see
just how long they'll take to burn out,
like they could burn forever.

How we envied all those actors lives,
how that cricket talked all night,
like he could talk forever.

When I thought I'd heard you in the hall,
turns out that it wasn't you at all,
I guess you had to be there.

E E
A D E E
And I remember how fast we ran
A D E E
I remember how fast we ran

A A A4 A/F#
D D D D

We flew over fences.
We dodged all the moving cars,
and the dry Arizona faces,
the dry Arizona faces.

   A                  D                       A                   D  
e|-7b9--------------|-----------------------|-------------------|--------5---------|
B|------------------|-----------------------|-------------------|----------5-------|
G|------------------|-----------------------|-------------------|----4b6-----6r4-2-| Guitar 1
D|------------------|-----------------------|------2------------|------------------|
A|------------------|-----------0---0-2-0---|-4-----------------|------------------|
E|------------------|---------------------4-|-------------------|------------------|
 |
e|------------------|-----------------------|-------------------|------------------|
B|-9b10----9-10-9---|-7-------------2-3-2---|-----------2-------|------------------|
G|----------------9-|----9--7-------------4-|-2-----------4-2/1-|-1----------------| Guitar 2
D|------------------|-----------------------|------2------------|--------4---------|
A|------------------|-----------------------|-------------------|------------------|
E|------------------|-----------------------|-------------------|------------------|

   A                D           A              D   
e|----------------|-----------|-7b9---7-8-7/-|-----------------------|
B|----------------|-----------|--------------|-----------------------|
G|----------------|-----2-----|--------------|-----------------------| Guitar 1
D|------------4-2-|-0---------|--------------|-2-2-2-----------------|
A|-2-/-4--4-------|-----------|--------------|-----------------0---4-|
E|----------------|-----------|--------------|-----------------------|
 |
e|----------------|-----------|-------4-5-4--|-2-------2/4-4/5-5/7-7-|
B|----------------|-----------|-9b10--------5|---5-3/5---------------|
G|------------2-1-|-----2-----|--------------|-----------------------| Guitar 2
D|----------------|-4---------|--------------|-----------------------|
A|-2-/-4--4-------|-----------|--------------|-----------------------|
E|----------------|-----------|--------------|-----------------------|


E E
A D E E
And how we stayed awake all night long
A D E E
How we stayed awake all night long


A A A4 A/F#
D D D D

We flew over fences.
We dodged all the moving cars,
and the dry Arizona faces,
the dry Arizona faces.


Outro: E D A2-A


-------------------------------


CHORDS
A     x02220
A4    x02240
D     xx0232
E     022100
A/F#  2x2220
A2    x02200
Tap to rate this tab
# A B C D E F G H I J K L M N O P Q R S T U V W X Y Z