Song name
# A B C D E F G H I J K L M N O P Q R S T U V W X Y Z

Grand Archives - Orange Juice tab

-------------------------------------------------------------------------------
                       ORANGE JUICE - Grand Archives
-------------------------------------------------------------------------------

Band: Grand Archives
Song: Orange Juice
Album: The Grand Archives (2008)

Tabbed by: Pascual Rambert (Chasco-Mousse, Argentina)
Tuning: Standard, Capo on 2th fret



(intro): G  D/F#


C/E  D/F#  G  C/E
C/E  D/F#  G  G

(riff)

If you could believe in all the things
that they told you,
then you could be leaving with me.

(riff)

If you can rely on all the times
you've been lied to,
you can rely on me.

(riff)

(solo)

(riff)

I've made up my mind,
made it up as I went along.
Admitting that you're wrong don't make it right.

You can't conquer a world
that's always been good to you,
                             G  G  G
but let's go out and try anyway.


-----------------------------------------------


CHORDS
G     320033
D/F#  2x023x
C/E   032010



RIFF
  (capo)               (no capo)
e|-------------|     e|-------9----------|
B|-------------|     B|-10-12---12-10----|
G|-0-2-4-2-0---| or  G|---------------11-|
D|-----------2-|     D|------------------|
A|-------------|     A|------------------|
E|-------------|     E|------------------|

SOLO (no capo)
   C/E     D/F#      G       C/E       C/E     D/F#      G       G
e|-----------------|-----------------|-----------------|-----------------|
B|-----------------|-5---------------|-----------------|-----------------|
G|-7-----6-4-------|-----7/6-6/7-----|-7-----6-4-4-----|-----------------|
D|-----------------|-----------------|-------------7-6-|-6/7-------------|
A|-----------------|-----------------|-----------------|-----------------|
E|-----------------|-----------------|-----------------|-----------------|
Tap to rate this tab
# A B C D E F G H I J K L M N O P Q R S T U V W X Y Z