Song name
# A B C D E F G H I J K L M N O P Q R S T U V W X Y Z

Grand Archives - Topsys Revenge tab

Band: Grand Archives
Song: Topsy’s Revenge
Album: Keep in Mind Frankenstein (2009)

Tabbed by: Geeky Randy (C.S.) – FlickGeek@hotmail.com
Tuning: Standard

   C         F                              C
e|---------|-8-----8-----8--------------|-8---8---8---8---|
B|-8-10-11-|-10----10----10----10-11-13-|-8---8---8---8---|
G|---------|----10----10----10----------|---9---9---9---9-|
D|---------|----------------------------|-----------------|
A|---------|----------------------------|-----------------|
E|---------|----------------------------|-----------------|
 |
e|---------|-8-----8-----8-----8--------|-8---8---8---8---|
B|---------|-10----10----10----10-------|-8---8---8---8---|
G|---------|----10----10----10----10----|---9---9---9---9-|
D|---------|----------------------------|-----------------|
A|---------|----------------------------|-----------------|
E|---------|----------------------------|-----------------|

                 F                  C
The rumor's around, I won't last long now
                 F
My cigarette tongue
                C
Has ended my days

                 F                  C
Know it was wrong, I wasn't made for stage
                F
Didn't mean harm
                C
Didn't mean harm

   G                       C               F               G
e|-7---7---7---7---|-----12----12----13----13----15----15----15----15----|
B|-8---8---8---8---|-----13----13----13----13----15----15----15----15----|
G|---7---7---7---7-|--------12----12----14----14----16----16----16----16-|
D|-----------------|-----------------------------------------------------|
A|-----------------|-----------------------------------------------------|
E|-----------------|-----------------------------------------------------|
Someday all these lights will  burn down   on me        Someday all these
   C               F               G
e|-12----12----13----13----15----15----15----15----|
B|-13----13----13----13----15----15----15----15----|
G|----12----12----14----14----16----16----16-------|
D|-------------------------------------------------|
A|-------------------------------------------------|
E|-------------------------------------------------|
   lights will burn down on me

                F
I tried to be strong
                C
Tried to be so brave
                F
It's gonna be hung
                C
Then they said that's no way

                F
It was gonna be fun
                C
Got creative ways now
                F
It's gonna be shown
           C
In a cinema way
                 F
The people will come
            C
From miles around
                 F
And when it was done
                C
My feet were on fire
                F
My feet were on fire
                C       G
My feet were on fire

                      C
Some day I will come back
    F       G
And burn it all down
                      C
Some day I will come back
    F       G
And burn it all down
                      C
Some day I will come back
    F       G
And burn it all down
                      C
Some day I will come back
    F       G
And burn it all down
                      C
Some day I will come back
    F       G
And burn it all down
                      C
Some day I will come back
    F       G
And burn it all down
Tap to rate this tab
# A B C D E F G H I J K L M N O P Q R S T U V W X Y Z