Song name
# A B C D E F G H I J K L M N O P Q R S T U V W X Y Z

Grand Avenue - Bullet tab

-------------------------------------------------------------------------------
			     Bullet-Grand Avenue
-------------------------------------------------------------------------------
Tabbed by:dwarfcar21
Email:wally_kai_harper@yahoo.com

Tuning:standard

This is a good song with no tabs.. All ear transcribed. Questions just pm. me

Intro:

e|----11-----------------11----------------11--------------------------------|
B|-13-----------------13-----------------13----------------------------------|
G|-------12p10-12-----------12p10--------------12p10---12/18-17-19-----------|
D|---------------------------------/13---------------------------------------|
A|---------------------------------------------------------------------------|
E|---------------------------------------------------------------------------|x2

Verse:

Rhythm:palm muted,repeat as necessary. 

e|---------------------------------------------------------------------------|
B|---------------------------------------------------------------------------|
G|---------------------------------------------------------------------------|
D|---------------------------------------------------------------------------|
A|-10-10-10-10-10-10-10-10-10-10-10-10-6-6-6-6-6-6-6-6-6-6-6-6-8-8-8-8-8-8-8-|
E|---------------------------------------------------------------------------|


e|---------------------------------------------------------------------------|
B|---------------------------------------------------------------------------|
G|---------------------------------------------------------------------------|
D|---------------------------------------------------------------------------|
A|-8-8-8-8-1-1-1-1-1-1-1-1-1-1-1-1-------------------------------------------|
E|---------------------------------------------------------------------------|


Lead:before chorus

e|-------11--------------------11--------------------------------------------|
B|----13--------------------13-----13--15------------------------------------|
G|-------------12p10h12------------------------------------------------------|
D|---------------------------------------------------------------------------|
A|---------------------------------------------------------------------------|
E|---------------------------------------------------------------------------|

Chorus:

lead

e|------11-11------------------11-11-----------|-15-11-15-11-11---------------|
B|---13-------13-/13--------13-------13-/13----|------------------------------|
G|---------------------------------------------|------------------------------|
D|---------------------------------------------|------------------------------|
A|---------------------------------------------|------------------------------|
E|---------------------------------------------|------------------------------|
                                                                           repeat as many times /\
Rhythm: 

Rhythm:palm muted,repeat as necessary. 

e|---------------------------------------------------------------------------|
B|---------------------------------------------------------------------------|
G|---------------------------------------------------------------------------|
D|---------------------------------------------------------------------------|
A|-10-10-10-10-10-10-10-10-10-10-10-10-6-6-6-6-6-6-6-6-6-6-6-6-8-8-8-8-8-8-8-|
E|---------------------------------------------------------------------------|


e|---------------------------------------------------------------------------|
B|---------------------------------------------------------------------------|
G|---------------------------------------------------------------------------|
D|---------------------------------------------------------------------------|
A|-8-8-8-8-1-1-1-1-1-1-1-1-1-1-1-1-------------------------------------------|
E|---------------------------------------------------------------------------|


thats it play the riff from the beginning over again.

| /  slide up
| \  slide down
| h  hammer-on
| p  pull-off
| ~  vibrato
| +  harmonic
| x  Mute note
=============================================================================
Tap to rate this tab
# A B C D E F G H I J K L M N O P Q R S T U V W X Y Z