Song name
# A B C D E F G H I J K L M N O P Q R S T U V W X Y Z

Grand Funk Railroad - Feelin Alright tab

intro:
---------------------------------|
---------------------------------|
--3-4-5-6/7-7--------------------|
--3-4-5-6/7-7--------------------|
--1-2-3-4/5-5--------------------|
---------------------------------|

chours:
--------------------------------|
--------------------------------|
--------------------------------|
-77777777777777-3/5555555-------|
-77777777777777-3/5555555-------|
-55555555555555-1/3333333-------|

solo is just a a-blues scale on 5ft fret

second solo:
--------------------------------|
---b18-18-15--------------------|
------------17-b17-17-15--------|     x3 (and the rest is on the same
-------------------------17-15--|          frets and same scale)(improvise!);)
--------------------------------|
--------------------------------|
Tap to rate this tab
# A B C D E F G H I J K L M N O P Q R S T U V W X Y Z