Song name
# A B C D E F G H I J K L M N O P Q R S T U V W X Y Z

Grand Funk Railroad - Into The Sun tab

INTO THE SUN-GRAND FUNK RAILROAD

DOMINIQUE

THIS SONG IS PLAYED MODERATLY FAST
TUNING: REGULAR

e|------5--6--5--6---3--4--3--4--|
b|-----6--6--6--6---4--4--4--4---|
g|-------------------------------|     
d|-------------------------------| 
a|-------------------------------|
E|-------------------------------|

e|------5--6--5--6---3--4--3--4--|
b|-----6--6--6--6---4--4--4--4---|
g|-------------------------------|
d|-------------------------------|
a|-------------------------------|
E|-------------------------------|

e|-----5--6--5--6-5-----3--4--3--4-3----|
b|----6--6--6--6---6---4--4--4--4---4---|
g|--------------------------------------|
d|--------------------------------------|
a|--------------------------------------|
E|--------------------------------------|
Tap to rate this tab
 
# A B C D E F G H I J K L M N O P Q R S T U V W X Y Z