Song name
# A B C D E F G H I J K L M N O P Q R S T U V W X Y Z

Granrodeo - Can Do tab

CAN DO by GRANRODEO
Viva KUROKO NO BASKET! LOL hahaha... No one posted it, so I had to learn it by myself. 
Of course, I know lots of people already know this.
Standard Tuning

e|---------------------------------------|
B|-4h5-5-7-9-7-5-7-9-7-5-7-9-12-10-9-7-5-|
G|---------------------------------------|
D|---------------------------------------|
A|---------------------------------------|
E|---------------------------------------|

e|-------------------------------------|
B|-5-7-9-7-5-7-9-7-5-7-9-5-------------|
G|-------------------------2-1-2-1-2-4-|
D|-------------------------------------|
A|-------------------------------------|
E|-------------------------------------|

e|-----------------------------------|
B|-5-7-9-7-5-7-9-7-5-7-9-12-10-9-7-5-|
G|-----------------------------------|
D|-----------------------------------|
A|-----------------------------------|
E|-----------------------------------|

e|-------------------------------------|
B|-5-7-9-7-5-7-9-7-5-7-9-5-------------|
G|-------------------------2-1-2-1-2-4-|
D|-------------------------------------|
A|-------------------------------------|
E|-------------------------------------|

e|--------------------------7-|
B|-5\4-5/7-9-7-5-0-10-9-7-5---|
G|----------------------------|
D|----------------------------|
A|----------------------------|
E|----------------------------|

~end~
Note: I'm not so sure for the last part, though. =w= It's too fast for my level.
Tap to rate this tab
# A B C D E F G H I J K L M N O P Q R S T U V W X Y Z