Guitaretab - guitar tabs
Song name
# A B C D E F G H I J K L M N O P Q R S T U V W X Y Z

Grant Green - The Windjammer tab

http://website.lineone.net/~johnharris/grant_green.htm
http://www.playjazzguitar.com/grant_green.html
http://en.wikipedia.org/wiki/Grant_Green

E|------4-|-|-|-----3-----1--------------------------------------|
B|----3-----------4-----3---------------------4-3-1-3-|-|--------|
G|--3-----------3-----1-----1p0-----3-5-3-5-3------------- x2 ---|
D|------------------------------3-|------------------------------|
A|---------------------------------------------------------------|
E|---------------------------------------------------------------|

E|---------------------------------------------------------------|
B|---------------------------------------------------------------|
G|-10p8---------------------------- x4 --------------------------|
D|------10-8------8-|--------------------------------------------|
A|-----------8h11-----8h11-11-|-|--------------------------------|
E|---------------------------------------------------------------|
[ Tab from: http://www.guitaretab.com/g/grant-green/70892.html ]
E|------4-|-|-|-----3-----1--------------------------------------|
B|----3-----------4-----3---------------------4-3-1-3-|-|--------|
G|--3-----------3-----1-----1p0-----3-5-3-5-3------------- x2 ---|
D|------------------------------3-|------------------------------|
A|---------------------------------------------------------------|
E|---------------------------------------------------------------|

SOLO...YEAH, YEAH, I'LL GET TO IT.

E|---------------------------------------------------------------|
B|---------------------------------------------------------------|
G|-10p8---------------------------- x4 --------------------------|
D|------10-8------8-|--------------------------------------------|
A|-----------8h11-----8h11-11-|-|--------------------------------|
E|---------------------------------------------------------------|

E|------4-|-|-|-----3-----1--------------------------------------|
B|----3-----------4-----3---------------------4-3-1-3-|-|--------|
G|--3-----------3-----1-----1p0-----3-5-3-5-3------------- FADE -|
D|------------------------------3-|------------------------------|
A|---------------------------------------------------------------|
E|---------------------------------------------------------------|
Related for The Windjammer tab
The Windjammer chords by Grant Green