Song name
# A B C D E F G H I J K L M N O P Q R S T U V W X Y Z

Grant Nuss - Never Let Me Go tab

Help us improve GuitareTab! Take a short survey!
Never Let Me Go
Family Force 5
Business up Front Party in the Back: Diamond Edition

Chorus:
D|-------------------------------------------------------------------|
A|-------------------------------------------------------------------|
F|-------------------------------------------------------------------|
C|--3-3-5-56-3035-5-6-3-0-3-5-5-6-3-0--3/13-13-13-13-13-12-|
G|--3-3-5-56-3035-56-3-0-3-5-5-6-3-0--3/13-13-13-13-13-12-|
D|--3-3-5-56-3035-56-3-0-3-5-5-6-3-0--3/13-13-13-13-13-12-|

Post-Chorus
D|-------------------------------------------------------------------|
A|-------------------------------------------------------------------|
F|-------------------------------------------------------------------|
C|--8-10-10-11-11-8-5-5-5-6-55------------------------------------|
G|--8-10-10-11-11-8-5-5-5-6-55------------------------------------|
D|--8-10-10-11-11-8-5-5-5-6-55------------------------------------|

Bridge:
D|-------------------------------------------------------------------|
A|-------------------------------------------------------------------|
F|-------------------------------------------------------------------|
C|--11-11-11-11-11-11-11-11-11-11-11-11-11\--5-5-5-5-1-1-1-1--------|
G|--11-11-11-11-11-11-11-11-11-11-11-11-11\--5-5-5-5-1-1-1-1--------|
D|--11-11-11-11-11-11-11-11-11-11-11-11-11\--5-5-5-5-1-1-1-1--------|


Thats Basically it, I think that everything else can be easily figured out!

**Chorus is played with the beat of the lyrics
    
Related for Never Let Me Go tab