Song name
# A B C D E F G H I J K L M N O P Q R S T U V W X Y Z

Grateful Dead - Brown Eyed Women tab

-------------------------------------------------------------------------------
			     Brown-Eyed Women - The Grateful Dead
-------------------------------------------------------------------------------
Tabbed by: Devastator42
Email: 

Tuning: standard

e|--------------9------------12--12------------------------------------------|
B|---/9-12-9-12---/14~~----14--14---14-12-----12h14p12-----12----------------|
G|----------------------------------------13----------13-----13~~------------|
D|---------------------------------------------------------------------------|
A|---------------------------------------------------------------------------|
E|---------------------------------------------------------------------------|

e|---------------------------------------------------------------------------|
B|---------------------------------------------------------------------------|
G|--13-11\9---9-11/13---11\9-------------------------------------------------|
D|---------------------------11----11-9------9h11p9--------------------------|
A|--------------------------------------11------------11-9-7---9/11~~~-------|
E|---------------------------------------------------------------------------|

e|---------------------------------------------------------------------------|
B|---------------------------------------------------------------------------|
G|---------------------------------------------------------------------------|
D|--9-10-11------------------------------------------------------------------|
A|---------------------------------------------------------------------------|
E|---------------------------------------------------------------------------|




| /  slide up
| \  slide down
| h  hammer-on
| p  pull-off
| ~  vibrato
| +  harmonic
| x  Mute note
===============================================================================

E Major Pentatonic Scale
Tap to rate this tab
# A B C D E F G H I J K L M N O P Q R S T U V W X Y Z