Song name
# A B C D E F G H I J K L M N O P Q R S T U V W X Y Z

Grateful Dead - Fire On The Mountain tab

Fire On The Mountain guitar tab
Album:   Dead Set (Live)

E,B,G,D,A,E tuneing

  2:00 in
|-------------------------------14-----------------------------------------|
|-14-/-16~--16-16-16-16~~---17------17--16--17~--16--14----17-16--14-------|
|---------------------------------------------------------------------13~~-|
|--------------------------------------------------------------------------|
|--------------------------------------------------------------------------|
|--------------------------------------------------------------------------|


|-----------------------|
|-------------16-16~----|
|----11-11~-------------|
|-----------------------|
|-----------------------|
|-----------------------|

  2:07 in
|------14---------------------------------21--19^(1/4)~~--|
|--17------17--16--17--16--14--17~~-----------------------|
|---------------------------------------------------------|
|---------------------------------------------------------|
|---------------------------------------------------------|
|---------------------------------------------------------|


|-------16--14-------------------------------------|
|---------------16--14---16--14--12--14--12--14~---|
|--------------------------------------------------|
|--------------------------------------------------|
|--------------------------------------------------|
|--------------------------------------------------|


  2:15 in
|-----19-19^(1/4)~~----------14------14--16---------|
|-16---------------------16------16----------16~~---|
|---------------------------------------------------|
|---------------------------------------------------|
|---------------------------------------------------|
|---------------------------------------------------|


|--------------------------------------------------------|
|--14--16--14------14------------12-14-12------16--16~~--|
|--------------16------16--13~~-----------11~------------|
|--------------------------------------------------------|
|--------------------------------------------------------|
|--------------------------------------------------------|


  2:25in
|--------------------------------------------12-----|
|-16-H-17-16-14-12--16-14-12--------------12--------|
|-----------------------------13~~----14--------11~-|
|---------------------------------------------------|
|---------------------------------------------------|
|---------------------------------------------------|


|--12-14-14-/-16--14-14~-------11--14-P-13-P-12-P-11---|
|-------------------------12---------------------------|
|------------------------------------------------------|
|------------------------------------------------------|
|------------------------------------------------------|
|------------------------------------------------------|


  2:30
|-12----11-----------------------------------------------------------------|
|----14----12-14-P-12--14-12-----------------------------------------------|
|-----------------------------14--14-13-11----11---------------------------|
|------------------------------------------14----14--14-P-13-P-11----------|
|-----------------------------------------------------------------14~~-----|
|--------------------------------------------------------------------------|
Tap to rate this tab
# A B C D E F G H I J K L M N O P Q R S T U V W X Y Z