Song name
# A B C D E F G H I J K L M N O P Q R S T U V W X Y Z

Grateful Dead - Black Muddy River tab

Black Muddy River [intro] GRATEFUL DEAD

|-----------------------------------------------------------|
|---------2-0-2-3-2-0---------------------------------------|
|---0h2h4-------------2-2---4p2-------2p1---2p1-1-2-1h2-2---|
|---------2-0-2-4-2-0-2-2h4-----2---------4-----2-2-2---2h4-|
|-0---------------------------------------------------------|
|-----------------------------------------------------------|

|---------------------------------------------------|
|-----2-0-2-3-2-0-------------------2-0-2-3-2-0-----|
|-2h4-------------2-2---2-------2h4-------------2-2-|
|-----2-0-2-4-2-0-2-2h4---2---------2-0-2-4-2-0-2-4-|
|---------------------------------------------------|
|---------------------------------------------------|

|------------------------------------|
|--------2-0-2-3-2-0-----------------|
|----2h4-------------2-2---0h2h4p2---|
|--------2-0-2-4-2-0-2-2h4---------2-|
|------------------------------------|
|------------------------------------|

|-----------------------|
|-----------------------|
|-2p1---2p1-1-2-1h2-2---|
|-----4-----2-2-2---2h4-|
|-----------------------|
|-----------------------|
Tap to rate this tab
 
# A B C D E F G H I J K L M N O P Q R S T U V W X Y Z