Song name
# A B C D E F G H I J K L M N O P Q R S T U V W X Y Z

Gray Bartlett - Imagine tab

Hey this is an instrumental version of imagine done by the NZ guitarist Gray bartlett. 
find the tabs so i thought id do it myself Im pretty sure its 99% correct and it sounds great

I split it into phrases to make it easy


Link for UG:http://www.graybartlett.com/default.asp

it goes
Phrase 1 x2
Phrase 2 x1
Phrase 1 x2
Phrase 2 x1
Phrase 3 x1
Phrase 4 x2
Phrase 5 x1
Phrase 3 x1 finishing on the last note

#1

e|--------------------------------------------------------------------------|
B|-----------------------------2-2------------------------------------------|
G|--------2----------2---2-2--------4---------------------------------------|
D|------------5-4-5---------------------------------------------------------|
A|--------------------------------------------------------------------------|
E|--------------------------------------------------------------------------|

e|--------------------------------------------------------------------------|
B|-----------------------------2--------------------------------------------|
G|--------2----------2---2-2-----4------------------------------------------|
D|------------5-4-5---------------------------------------------------------|
A|--------------------------------------------------------------------------|
E|--------------------------------------------------------------------------|


#2

e|--------------------------------------------------------------------------|
B|---------3---3---7-7-5-------2-2--2---3-3--3---5--------------------------|
G|-------4---4-----------------2-2--2---4-4--4---6--------------------------|
D|--------------------------------------------------------------------------|
A|--------------------------------------------------------------------------|
E|--------------------------------------------------------------------------|


#3

e|--------5-------------------------------------------------------------------|
B|----5-7---7-5--3---3-3-2-2---2-2h3--------3-2-2-----------------------------|
G|---------------------------4------------4-------4-4-2-----------------------|
D|----------------------------------------------------------------------------|
A|----------------------------------------------------------------------------|
E|----------------------------------------------------------------------------|

e|-------------------------------2-----2------------------------------------|
B|-------3-2-2---2-2h3-------3-5---5-----5-3--------------------------------|
G|-----4-------4-----------4------------------------------------------------|
D|--------------------------------------------------------------------------|
A|--------------------------------------------------------------------------|
E|--------------------------------------------------------------------------|


#4

e|----5-------5--5--5--9--9---7------5-------5--5--5---9--7-----------------|
B|------8-7-8----7--7--10-10--8--------8-7-8----7--7---10-8-----------------|
G|--------------------------------------------------------------------------|
D|--------------------------------------------------------------------------|
A|--------------------------------------------------------------------------|
E|--------------------------------------------------------------------------|


#5

e|-----------10------10---14--14--12----9--9----9----10--10---10---12-------|
B|-------12------12---------------------10-10---10---12--12---12---14-------|
G|--------------------------------------------------------------------------|
D|--------------------------------------------------------------------------|
A|--------------------------------------------------------------------------|
E|--------------------------------------------------------------------------|
Tap to rate this tab
# A B C D E F G H I J K L M N O P Q R S T U V W X Y Z