Guitaretab - guitar tabs
Song name
# A B C D E F G H I J K L M N O P Q R S T U V W X Y Z

Gray David - Coming Down tab

Band:  CROWBAR
Album: Life's Blood For The Downtrodden
Song:  Coming Down

Transcribed by: general maxx

Tuning: 2.5 steps down (B)

Keys:
 / \ - slide
  x  - mute
 ___ - palm mute
  b  - bend
  r  - release


INTRO/CHORUS:

|------------------------------------------------------|
|------------------------------------------------------|
|------------------------------------------------------|
|-9\7-6--6----/9--7--2-2----9\7-6--6----/9--7--2-2/4---|
|-x---x--x-----x--x--2-2----x---x--x-----x--x--2-2/4---|
|-7\5-4--4--2-/7--5--0-0----7\5-4--4--2-/7--5--0-------| 4x


VERSE:

|---------------------------------------------------|
|---------------------------------------------------|
|---------------------------------------------------|
|-6-6--6-6-6-6---6--2-2----6-6--6-6-6-6---6--6-6----|
|-4-6--4-6-6-4---4--2-2----4-6--4-6-6-4---4--4-4----|
|-4-4--4-4-4-4---5--0-0----4-4--4-4-4-4---5--0-5----| 4x


TRANSITION:
[ Tab from: http://www.guitaretab.com/g/gray-david/7323.html ]
|-------------------------------|
|-------------------------------|
|-------------------------------|
|---6-6---6-6---6-6---6-6-------|
|-4-----------------------------|
|-------7-----5-----4-----2/5~--| 2x


CHORUS - 4x


VERSE - 4x


TRANSITION - 4x


CHORUS - 4x


BRIDGE:

|------------------------------------------------|
|------------------------------------------------|
|---------------------7/9----9--7/9--7/9--9/13-\-|
|-6----6----4----4----7/9----9--7/9--7/9--9/13-\-|
|-6----6----4----4----5/7----7--5/7--5/7--7/11-\-|
|-4----4----2----2------------------------7/11-\-| 3x

|---------------------------------------------------|
|---------------------------------------------------|
|-----------------------7/9----9--7/9---------------|
|-6----6----4----4------7/9----9--7/9--9-9-9-9------|
|-6----6----4----4------5/7----7--5/7--7-7-7-7------|
|-4----4----2----2---00-5/7----5--5/7--7-7-7-7-4br~-|
                     __                _______


CHORUS (fades out)
Related for Coming Down tab
Coming Down chords by Gray David