Guitaretab - guitar tabs
Song name
# A B C D E F G H I J K L M N O P Q R S T U V W X Y Z

Gray Matter - Walk The Line tab

intro
    e-----------------------------------------|
    B-----------------------------------------|
    G-----------------------------------------|
    D-----------------0-1-0-------------------|
    A-3-3---1-1---3-3-------3-1---------------|
    E-----3-----3-----------------------------|

    e-----------------------------------------|
    B-----------------------------------------|
    G-----------------------------------------|
    D-----------------------------------------|
    A-----0-1-3-1-----------------------------|
    E-0-1---------3---------------------------|
i dont know if that parts 100% correct so email me if you have any changes


    e-----------------------------------------|X2
    B-----------------------------------------|
    G-8~----8~--------------------------------|
    D-8~----8~8~10----------------------------|
    A-6~----6~8~10----------------------------|
    E---------6~8-----------------------------|


    e-----------------------------------------|
    B-----------------------------------------|
    G-----------------------------------------|
    D----------------------0-1-0--------------|
    A--0-1-3-3---1-1---3-3-------3-1----------|
    E-3--------3-----3------------------------|

    e-----------------------------------------|
    B-----------------------------------------|
    G-----------------------------------------|
    D-----------------------------------------|
    A-----0-1-3-1-----------------------------|
    E-0-1---------3---------------------------|
[ Tab from: http://www.guitaretab.com/g/gray-matter/141923.html ]

    e-----------------------------------------|X2
    B-----------------------------------------|
    G-8~----8~--------------------------------|
    D-8~----8~8~10----------------------------|
    A-6~----6~8~10----------------------------|
    E---------6~8-----------------------------|


    e-----------------------------------------|
    B-----------------------------------------|
    G----8-10---------------------------------|
    D-10-8-10---------------------------------|
    A-10-6-8----------------------------------|
    E-8---------------------------------------|

    
    e-----------------------------------------|
    B-----------------------------------------|
    G-----------------------------------------|
    D-----------------0-1-0-------------------|
    A-3-3---1-1---3-3-------3-1---------------|
    E-----3-----3-----------------------------|

    e-----------------------------------------|
    B-----------------------------------------|
    G-----------------------------------------|
    D-----------------------------------------|
    A-----0-1-3-1-----------------------------|
    E-0-1---------3---------------------------|


    e-----------------------------------------|
    B-----------------------------------------|
    G-8~----8~--------------------------------|
    D-8~----8~8~10----------------------------|
    A-6~----6~8~10----------------------------|
    E---------6~8-----------------------------|


i think thats it. any comments or changes, email me at punkimpostor@yahoo.com
Related for Walk The Line tab