Song name
# A B C D E F G H I J K L M N O P Q R S T U V W X Y Z

Great Northern - Fingers tab

I was watching a video of this song on youtube and this is what I got out of it

This is my first tab so there may be mistakes

Band: Great Northern
Song: Fingers
Album: Remind Me Where The Light Is

Verse 1
E|---------------|
B|---------------|
G|---------------|
D|---------------|
A|--7-7-7-7-7-7-7|
E|-0-0-0-0-0-0-0-|

This repeats a lot early on but the at some point it goes:

E|---------------|
B|---------------|
G|---------------|
D|---------------|
A|--4-4-2-2-7-7-7|
E|-0-0-0-0-0-0-0-|

Chorus 1(where Solon goes "It's the weight of the world.....")

E|---------------|
B|---------------|
G|---------------|
D|---------------|
A|-7-7-7-7-7-7-7-|
E|0-0-0-0-8-8-0-0|


The second verse

E|-----------------|
B|-----------------|
G|-----------------|
D|-9-9-9-9-9-9-9-9-|
A|-7-7-7-7-7-7-7-7-|
E|-----------------|

The shifts (similar to verse 1)

E|-------------------|
B|-------------------|
G|-------------------|
D|-9-9-9-9-6-6-4-4-9-|
A|-7-7-7-7-4-4-2-2-7-|
E|-------------------|


The Chorus riff is same as second verse
Then Goes into(I think):

E|-----------------|     |-------------------------------------------|
B|-----------------|     |-------------------------------------------|
G|-9-9-9-9-9-9-9-9-|then | ----------9999999999------------7777777777|
D|-7-7-7-7-7-7-7-7-|     |-999999999-7777777777-9999999999-7777777777|
A|-----------------|     |-777777777------------7777777777-----------|
E|-----------------|     |-------------------------------------------|
(You'll have to guess times to strum)

"Come out with your fingers"......part

E|---------------------------------------------|
B|---------------------------------------------|
G|---------------------------------------------|
D|-99999999--------------------------------9999|
A|-77777777-99999999-1111111111111111-9999-7777|
E|----------77777777-9-9-9-9-9-9-9-9--7777-----|

In the version I saw Solon does this guitar part during the last part coming to when he 
singing again:

E|-------------------------------------|
B|-------------------------------------|
G|-------------------------------------|
D|-99999999-11111111-44444444-11111111-|
A|-77777777-9-9-9-9--22222222-9-9-9-9--|
E|-------------------------------------|

Then when he starts singing again:

E|----------------------------------|
B|----------------------------------|
G|----------------------------------|
D|-99999999-10101010-99999999999999-|
A|-77777777-10101010-77777777777777-|
E|----------8-8-8-8-----------------|

Then it ends with the chord

E|---------------|-------|
B|---------------|-------|
G|---------------|-------|
D|-9999999999999-|---9~--|
A|-7777777777777-|---7~--|
E|---------------|-------|

Not perfect

If you need reference
this is the video i watched:

http://www.youtube.com/watch?v=MtlepGIcaHA

Great song by a great band
Yay Solon Bixler!!!!
Tap to rate this tab
# A B C D E F G H I J K L M N O P Q R S T U V W X Y Z