Guitaretab - guitar tabs
Song name
# A B C D E F G H I J K L M N O P Q R S T U V W X Y Z

Green Bean - Attitude tab

--------------------------------------------------------------
Artist:Green Bean
Song:Attitude
Album:Open Eyes
--------------------------------------------------------------

email me at pistol012@hotbot.com

(Opening)x3
E--------------------------|
B--------------------------|
G---------------7-7--------|
D-------------7-----5------|
A-------7-9-9--------------|
E-10-10--------------------|
[ Tab from: http://www.guitaretab.com/g/green-bean/125221.html ]
(Verse)
E---------------------------|
B---------------------------|
G-------7-7-7-------5x5-5-5-|
D-5-5-5-7-7-7-8-8-8-5x5-5-5-|
A-5-5-5-5-5-5-8-8-8-3x3-3-3-|
E-3-3-3-------6-6-6---------|

(Chorus)
E-----------------------------|
B-----------------------------|
G----10-8------10-8-----9-7---|
D-10-10-8-8-10-10-8-8-9-9-7-7-|
A-10--8-6-8-10--8-6-8-9-7-5-7-|
E--8------6--8------6-7-----5-|


(Solo)
E-10-13----b12----15-15-16-17-19-------b20-------------|
B-------10-----14-------------------------------5-4----|
G--------------------------------3-4-5-----5-7-6----9--|
Related for Attitude tab
Attitude chords by Green Bean