Song name
# A B C D E F G H I J K L M N O P Q R S T U V W X Y Z

Green Day - Hold On tab

ARTIST:Greenday
ALBUM:Warning
SONG:Hold On
TRACK: 8
E-MAIL: greenday_rhcp2002@yahoo.co.uk
  
 
  Intro
     G    C    G    C    G    C        D
 e|-x-x-------x-x-------x-x-------2-2-2-2-2-2-|
 B|-3-3--1-1--3-3--1-1--3-3--1-1--3-3-3-3-3-3-|
 G|-0-0--0-0--0-0--0-0--0-0--0-0--2-2-2-2-2-2-|
 D|-0-0--2-2--0-0--2-2--0-0--2-2--0-0-0-0-0-0-|
 A|-x-x--3-3--x-x--3-3--x-x--3-3--------------|
 E|-3-3-------3-3-------3-3-------------------| x2

  

  Verse(Play verse 2 times)
     G    C    G    D           C    D    G
 e|-x-x-------x-x--2-2-|     |------2-2--x-x-|
 B|-3-3--1-1--3-3--3-3-|     |-1-1--3-3--3-3-|
 G|-0-0--0-0--0-0--2-2-|     |-0-0--2-2--0-0-|
 D|-0-0--2-2--0-0--0-0-|     |-2-2--0-0--0-0-|
 A|-x-x--3-3--x-x------|     |-3-3-------x-x-|
 E|-3-3-------3-3------| x3  |-----------3-3-| x1

 

  Chorus
       Em       G        D        G         Em 
 e|-0-0-0-0--x-x-x-x--2-2-2-2--x-x-x-x--0-0-0-0--
 B|-0-0-0-0--3-3-3-3--3-3-3-3--3-3-3-3--0-0-0-0--
 G|-0-0-0-0--0-0-0-0--2-2-2-2--0-0-0-0--0-0-0-0--
 D|-2-2-2-2--0-0-0-0--0-0-0-0--0-0-0-0--2-2-2-2--
 A|-2-2-2-2--x-x-x-x-----------x-x-x-x--2-2-2-2--
 E|-0-0-0-0--3-3-3-3-----------3-3-3-3--0-0-0-0--

  Chorus (cont)
       G           C            D
  -x-x-x-x---------------2-2-2-2-2-2-|
  -3-3-3-3--1-1-1-1-1-1--3-3-3-3-3-3-|
  -0-0-0-0--0-0-0-0-0-0--2-2-2-2-2-2-|
  -0-0-0-0--2-2-2-2-2-2--0-0-0-0-0-0-|
  -x-x-x-x--3-3-3-3-3-3--------------|
  -3-3-3-3---------------------------|

   

  Solo
 e|---------------------------------------------------------|
 B|-0-0-0--1-1-1--0-0-0--3-3-3--0-0-0--1-1-1--0-0-0--7-8-10-|
 G|-0-0-0--0-0-0--0-0-0--2-2-2--0-0-0--0-0-0--0-0-0--7-7--7-|
 D|---------------------------------------------------------|
 A|---------------------------------------------------------|
 E|---------------------------------------------------------|

  |---------------------------------------------------------|
  |-8-8-8--8-8-8--8-8-8--10-10-10--8-8-8--10-10-10----8---8-|
  |-7-7-7--9-9-9--7-7-7---7--7--7--7-7-7---7--7--7--7---7---|
  |---------------------------------------------------------|
  |---------------------------------------------------------|
  |---------------------------------------------------------|
  
  |---------------------------------------------------------|
  |-0-0-0--1-1-1--0-0-0--3-3-3--0-0-0--1-1-1--0-0-0--10-8-7-|
  |-0-0-0--0-0-0--0-0-0--2-2-2--0-0-0--0-0-0--0-0-0---7-7-7-|
  |---------------------------------------------------------|
  |---------------------------------------------------------|
  |---------------------------------------------------------|

  |---------------------------------------------------------|
  |-8-8-8--8-8-8--8-8-8--10-10-10--8-8-8--10-10-10----8---8-|
  |-7-7-7--9-9-9--7-7-7---7--7--7--7-7-7---7--7--7--7---7---|
  |---------------------------------------------------------|
  |---------------------------------------------------------|
  |---------------------------------------------------------|

  
  Last Note
  |-x-|
  |-3-|
  |-0-|
  |-0-|
  |-x-|
  |-3-|


these are all the guitar parts that you need listen to the song
this is the Order to play it in

Intro  x2
Verse  x2
Chorus x1
Intro  x1
Verse  x2
Chorus x1
Intro  x1
Solo   x1
Chorus x1
Last Note x1

 NOTES:This is a great song to play. It makes a differance to the normal power
 chords that Greenday use in their songs and the solo i think is really easy
 but a lot of fun to play.The G chord i dont play it exactly but an an easier way not putting
 my finger on the high 'e' string but if you want to go ahead...there's this song tabbed
 any comments welcome
Tap to rate this tab
# A B C D E F G H I J K L M N O P Q R S T U V W X Y Z