Song name
# A B C D E F G H I J K L M N O P Q R S T U V W X Y Z

Green Day - Know Your Enemy tab

ok this is what we got so far from the 90 second clip this riff is almost the same as 
intro to ten mintues by the get up kids.
intro:                        end intro on this:
E----------------------------I-----------------------------|
B----------------------------I-----------------------------|
G-----7-7-------------7-7----I-----7-7---------------------|
D-7-x-7-7-7-7-x-x-7-7-7-7-7-7I-7-x-7-7-7-7-x-x-4-4-4-4-4-4-|
A-7-x-9-9-7-7-x-x-7-7-9-9-7-7I-7-x-9-9-7-7-x-x-4-4-4-4-4-4-|
E-9-x-----9-9-x-x-9-9-----9-9I-9-x-----9-9-x-x-2-2-2-2-2-2-|


Chorus/verse
E---------------------------------------------------------|
B---------------------------------------------------------|
G-----7-7-------------7-7---------7-7---------------------|
D-7-x-7-7-7-7-x-x-7-7-7-7-7-7-7-x-7-7-7-7-x-x-4-4-4-4-4-4-|
A-7-x-9-9-7-7-x-x-7-7-9-9-7-7-7-x-9-9-7-7-x-x-4-4-4-4-4-4-|
E-9-x-----9-9-x-x-9-9-----9-9-9-x-----9-9-x-x-2-2-2-2-2-2-|

Bridge:
E---------------------------------|
B---------------------------------|
G-7-7-7-7-7-7-7-7-----------------|
D-7-7-7-7-7-7-7-7-7-7-7-7-7-7-7-7-|
A-9-9-9-9-9-9-9-9-7-7-7-7-7-7-7-7-|
E-----------------9-9-9-9-9-9-9-9-|
Tap to rate this tab
 
# A B C D E F G H I J K L M N O P Q R S T U V W X Y Z