Song name
# A B C D E F G H I J K L M N O P Q R S T U V W X Y Z

Green Day - Peacemaker tab

-------------------------------------------------------------------------------
			    Peacemaker-Green Day
-------------------------------------------------------------------------------
Tabbed by:Stjimmy34
Tuning:Standard

I'm sorry if any of this is confusing!


Chords used

  Bm    F#m  E
e|-2-----2----------|
B|-3-----2----------|
G|-4-----3----------|
D|-4-----4----2-----|
A|-2-----4----2-----|
E|-------2----0-----|


Verse

(Bm)
Well, I've got a fever, a non-believer. I'm in a state of grace
                                         F#m
For I am the Caesar, I'm gonna seize the day

Well, call of the banshee hey hey. Hey hey hey hey hey
                                            Bm
As God as my witness the infidels are gonna pay

Well, call the assassin. The orgasm. A spasm of love and hate
                                               Bm 
For what will divide us? The righteous and the meek

Well, call of the wild hey hey. Hey hey hey hey hey
                                    Bm     
Death to the girl at the end of the serenade

Chorus

  F#m                            Bm
  Vendetta, sweet vendetta. This Beretta of the night

e|---------------------------------------------------------------------------|
B|---------------------------------------------------------------------------|
G|---------------------------------------------------------------------------|
D|---------------------------------------------------------------------------|
A|------------------------------2~-------5------2~---------------------------|
E|-2~--------------3-2~------2-----------------------------------------------|

  E                 Bm      F#m                         Bm 
  This fire and the desire. Shots ringing out on a holy parasite
e|---------------------------------------------------------------------------|
B|---------------------------------------------------------------------------|
G|---------------------------------------------------------------------------|
D|--------------------------------------------0------------------------------|
A|-5-----------------------------------------------0---2~--------------------|
E|---0~------------3-2~-----3-2~----------2----------------------------------|

Verse 2
I am a killjoy from Detroit. I drink from a well of rage
                                    F#m
I feed off the weakness with all my love

Call up the captain hey hey. Hey hey hey hey hey
                                          Bm
Death to the lover that you were dreaming of

This is a stand off, a Molotov cocktail On the house
                                                F#m
You thought I was a write off. You better think again

Call the peacemaker hey hey. Hey hey hey hey hey
                                                  Bm
I'm gonna send you back to the place where it all began


Chorus

  F#m                            Bm
  Vendetta, sweet vendetta. This Beretta of the night

e|---------------------------------------------------------------------------|
B|---------------------------------------------------------------------------|
G|---------------------------------------------------------------------------|
D|---------------------------------------------------------------------------|
A|------------------------------2~-------5------2~---------------------------|
E|-2~--------------3-2~------2-----------------------------------------------|

  E                 Bm      F#m                         Bm 
  This fire and the desire. Shots ringing out on a holy parasite
e|---------------------------------------------------------------------------|
B|---------------------------------------------------------------------------|
G|---------------------------------------------------------------------------|
D|--------------------------------------------0------------------------------|
A|-5-----------------------------------------------0---2~--------------------|
E|---0~------------3-2~-----3-2~----------2----------------------------------|

Solo

Guitar 1
e|-------------------------------------------------------------------------------|
B|--------------11-9-11-9-11-9-11----9-11-9-11-9-11-------9-12-11-12-11-12-11----|
G|-4---3---4----------------------11----------------11-11---------------------11-|
D|-------------------------------------------------------------------------------|
A|-------------------------------------------------------------------------------|
E|-------------------------------------------------------------------------------|

Guitar 2        F#m                                         Bm

e|-------------------------------------------------------------------------------|
B|----11-12-11-12-11-12-11-------11-12-11-12-14-15-14-12-11-12-11-12-11-12-11----|
G|-11----------------------11-11----------------------------------------------11-|
D|-------------------------------------------------------------------------------|
A|-------------------------------------------------------------------------------|
E|-------------------------------------------------------------------------------|

                                 E                          Bm

e|---------------------------------------------------------------------------|
B|----9-11-9-11-9-11-9-------12--15-11---------------------------------------|
G|-11------------------11-11-------------------------------------------------|
D|---------------------------------------------------------------------------|
A|---------------------------------------------------------------------------|
E|---------------------------------------------------------------------------|

      F#m                    Bm


Verse 3 A second guitar just strikes the chords throughout the verse

(Bm)
Well now the caretaker's the undertaker. Now I'm gonna go out and get the peacemaker
                               F#m
This is the neo St. Valentines Massacre. Well call up the Gaza hey hey. hey hey hey hey hey
                                    Bm
Death to the ones at the end of the serenade
      F#m                                 Bm
Well, death to the ones at the end of the serenade
      F#m                                 Bm
Well, death to the ones at the end of the serenade
      F#m (stop)                                   Bm        (stop) Bm 
Well, death to the ones at the end of the sere-----nade


| /  slide up
| \  slide down
| h  hammer-on
| p  pull-off
| ~  vibrato
| +  harmonic
| x  Mute note
===============================================================================
Tap to rate this tab
# A B C D E F G H I J K L M N O P Q R S T U V W X Y Z